Oops, an error
Loading. Please wait.

Time We Had Tab

ver1
ver1

Whole song

Interactive

More versions @911Tabs.com
9,038 views 3 this week
4 commentsread comments
1 2 3 4 5
excellent!
x 3
Autoscroll
+/-
esc
set tempo
stop
Contributor
Hey! There's an official Ultimate Guitar app which is ideal
for learning songs when you're away from computer. Get the app
WARNING: You are trying to view
                                    content from Ultimate-Guitar.com
                                    in an unauthorized application,
                                    which is prohibited.

                                    Please use an official Ultimate
                                    Guitar Tabs application for iPhone,
                                    iPad or Android to access legitimate
                                    chords, guitar, bass, and drum tabs
                                    from Ultimate-Guitar.com database.

                                    Type "ultimate guitar tabs" in Apple
                                    App Store's or Android Market's
                                    search to find the application.
#----------------------------------PLEASE NOTE---------------------------------#
#This file is the author's own work and represents their interpretation of the #
#song. You may only use this file for private study, scholarship, or research. #
#------------------------------------------------------------------------------#

TIME WE HAD
As recorded by The Mother Hips
(From the 1993 Album KISS THE CRYSTAL FLAKE)

Transcribed by Brent Guzik
        

Words and Music by Tim Bluhm

Gtr I (E A D G B E) - 'Untitled'
Gtr II (E A D G B E) - 'Untitled'
Gtr III (E A D G B E) - 'Muffled Lead Guitar'

 Verse 1
  Q=107
  C
 4/4
  Gtr I
  Q   E E E E E E   +E  E E E E E E E   +E  E E E E E E E   +E  E E E E E E E
|-----------------|-------------------|-------------------|--------------------|
|-----------6---5-|-(5)-5-------6---5-|-(5)-5-------6---5-|-(5)-5-------5---5--|
|-----7-5-7-5---5-|-(5)-5-7-5-7-5---5-|-(5)-5-7-5-7-5---5-|-(5)-5-7-5-7-5---5--|
|-----5-5-5-------|-------5-5-5-------|-------5-5-5-------|-------5-5-5--------|
|-----------------|-------------------|-------------------|--------------------|
|-----------------|-------------------|-------------------|--------------------|
|
| Gtr II
| E E E Q   E E E    E  E E Q   E E E    E  E E Q   E E E    E  E E Q   E E E
|-----------------|-------------------|-------------------|--------------------|
|-----------------|-------------------|-------------------|--------------------|
|-----5---------5-|-------5---------5-|-------5---------5-|-------5---------5--|
|---5---5-----5---|-----5---5-----5---|-----5---5-----5---|-----5---5-----5----|
|-3---------3-----|--3----------3-----|--3----------3-----|--3----------3------|
|-----------------|-------------------|-------------------|--------------------|


  C                                   Am
  E E E E E E E E   E E E E E E E E   E E E Q  Q.
|-----------------|-----------------|-------5---------|
|-----------------|-----------------|-----5----5------|
|-----------------|-----------------|---5-------------|
|-5-5-5-5-5-5-5-5-|-5-5-5-5-5-5-5-5-|-7---------------|
|-3-3-3-3-3-3-3-3-|-3-3-3-3-3-3-3-3-|-----------------|
|-----------------|-----------------|-----------------|
|
| E E E Q   E E E   E E E Q   E E E   E E E Q  E  E E
|-----------------|-----------------|-----------------|
|-----------------|-----------------|-----------------|
|-----5---------5-|-----5---------5-|-----2---------2-|
|---5---5-----5---|---5---5-----5---|---2---2-----2---|
|-3---------3-----|-3---------3-----|-0--------0------|
|-----------------|-----------------|-----------------|


  G         F             Am                G         F
    E  E  E H         E   E E E Q  Q.         E  E  E  H         E
|-----10----8-----------|-------5---------|-------------------------|
|--------12-6-----------|-----5----5------|-----12------------------|
|-/12-------------------|---5-------------|-/12----12---------------|
|-----------------------|-7---------------|-----------10------------|
|-----------------------|-----------------|------------8------------|
|-----------------------|-----------------|-------------------------|
|
|   E  E  E Q   E  E  E   E E E Q  E  E E     E  E  E  Q   E  E  E
|-----------------------|-----------------|-------------------------|
|-----------------------|-----------------|-------------------------|
|--------12-------10----|-----2---------2-|--------12--------10-----|
|-----12-------10----10-|---2---2-----2---|-----12--------10----10--|
|--10-------8-----------|-0--------0------|--10--------8------------|
|-----------------------|-----------------|-------------------------|


  C
  E E E E E E E E   E E E E E E E E   E E E E E E E E   E E E E E E E E
|-----------------|-----------------|-----------------|-----------------|
|-----------------|-----------6-----|-----------------|-----------6-----|
|-----------------|-----7-5-7-5-----|-----------------|-----7-5-7-5-----|
|-5-5-5-5-5-5-5-5-|-5-5-5-5-5-----5-|-5-5-5-5-5-5-5-5-|-5-5-5-5-5-----5-|
|-3-3-3-3-3-3-3-3-|-3-3-----------3-|-3-3-3-3-3-3-3-3-|-3-3-----------3-|
|-----------------|-----------------|-----------------|-----------------|
|
| E E E Q   E E E   E E E Q   E E E   E E E Q   E E E   E E E Q   E E E
|-----------------|-----------------|-----------------|-----------------|
|-----------------|-----------------|-----------------|-----------------|
|-----5---------5-|-----5---------5-|-----5---------5-|-----5---------5-|
|---5---5-----5---|---5---5-----5---|---5---5-----5---|---5---5-----5---|
|-3---------3-----|-3---------3-----|-3---------3-----|-3---------3-----|
|-----------------|-----------------|-----------------|-----------------|


  C                                   Am
  E E E E E E E E   E E E E E E E E   E E E Q  Q.
|-----------------|-----------------|-------5---------|
|-----------------|-----------------|-----5----5------|
|-----------------|-----------------|---5-------------|
|-5-5-5-5-5-5-5-5-|-5-5-5-5-5-5-5-5-|-7---------------|
|-3-3-3-3-3-3-3-3-|-3-3-3-3-3-3-3-3-|-----------------|
|-----------------|-----------------|-----------------|
|
| E E E Q   E E E   E E E Q   E E E   E E E Q  E  E E
|-----------------|-----------------|-----------------|
|-----------------|-----------------|-----------------|
|-----5---------5-|-----5---------5-|-----2---------2-|
|---5---5-----5---|---5---5-----5---|---2---2-----2---|
|-3---------3-----|-3---------3-----|-0--------0------|
|-----------------|-----------------|-----------------|


  G         F             Am                G         F
    E  E  E H         E   E E E Q  Q.         E  E  E  H         E
|-----10----8-----------|-------5---------|-------------------------|
|--------12-6-----------|-----5----5------|-----12------------------|
|-/12-------------------|---5-------------|-/12----12---------------|
|-----------------------|-7---------------|-----------10------------|
|-----------------------|-----------------|------------8------------|
|-----------------------|-----------------|-------------------------|
|
|   E  E  E Q   E  E  E   E E E Q  E  E E     E  E  E  Q   E  E  E
|-----------------------|-----------------|-------------------------|
|-----------------------|-----------------|-------------------------|
|--------12-------10----|-----2---------2-|--------12--------10-----|
|-----12-------10----10-|---2---2-----2---|-----12--------10----10--|
|--10-------8-----------|-0--------0------|--10--------8------------|
|-----------------------|-----------------|-------------------------|


 Chorus 1
  F            Am        E       F                       Am
  +E   E  E  E E E E E   E E E E E  E  E  E   E  E  E  E E E E E
|----------------------|--------------------|--------------------|
|----------------------|--------------------|--------------------|
|----------------------|--------------------|--------------------|
|----------------------|--------------------|--------------------|
|-(3)--3--3--3-7-7-8-7-|-2-2-2-0-3--3--3--3-|-3--3--3--3-7-7-7-7-|
|-(1)--1--1--1-5-5-5-5-|-0-0-0-0-1--1--1--1-|-1--1--1--1-5-5-5-5-|
|
|  E   E  E  E E E E E   E E E E E  E  E  E   E  E  E  E E E E E
|----------------------|--------------------|--------------------|
|------------------5---|--------------------|----------------5---|
|--------10------5---5-|-----9--------10----|------10------5---5-|
|-----10----10-7-------|---9---9---10----10-|---10----10-7-------|
|--8-------------------|-7-------8----------|-8------------------|
|----------------------|--------------------|--------------------|


  E       F                       Am        E       F
  E E E E E  E  E  E   E  E  E  E E E E E   E E E E E  E  E  E
|--------------------|--------------------|---------------------|
|--------------------|--------------------|---------------------|
|--------------------|--------------------|---------------------|
|--------------------|--------------------|---------------------|
|-2-2-2-0-3--3--3--3-|-3--3--3--3-7-7-7-7-|-2-2-2-0-3--3--3--3--|
|-0-0-0-0-1--1--1--1-|-1--1--1--1-5-5-5-5-|-0-0-0-0-1--1--1--1--|
|
| E E E E E  E  E  E   E  E  E  E E E E E   E E E E E  E  E  E
|--------------------|--------------------|---------------------|
|--------------------|----------------5---|---------------------|
|-----9--------10----|------10------5---5-|-----9--------10-----|
|---9---9---10----10-|---10----10-7-------|---9---9---10----10--|
|-7-------8----------|-8------------------|-7-------8-----------|
|--------------------|--------------------|---------------------|


 Verse 2
  C
  Q   E E E E E E   +E  E E E E E E E   +E  E E E E E E E   +E  E E E E E E E
|-----------------|-------------------|-------------------|-------------------|
|-----------6---5-|-(5)-5-------6---5-|-(5)-5-------6---5-|-(5)-5-------5---5-|
|-----7-5-7-5---5-|-(5)-5-7-5-7-5---5-|-(5)-5-7-5-7-5---5-|-(5)-5-7-5-7-5---5-|
|-----5-5-5-------|-------5-5-5-------|-------5-5-5-------|-------5-5-5-------|
|-----------------|-------------------|-------------------|-------------------|
|-----------------|-------------------|-------------------|-------------------|
|
| E E E Q   E E E    E  E E Q   E E E    E  E E Q   E E E    E  E E Q   E E E
|-----------------|-------------------|-------------------|-------------------|
|-----------------|-------------------|-------------------|-------------------|
|-----5---------5-|-------5---------5-|-------5---------5-|-------5---------5-|
|---5---5-----5---|-----5---5-----5---|-----5---5-----5---|-----5---5-----5---|
|-3---------3-----|--3----------3-----|--3----------3-----|--3----------3-----|
|-----------------|-------------------|-------------------|-------------------|


  C                                   Am
  E E E E E E E E   E E E E E E E E   E E E Q  Q.
|-----------------|-----------------|-------5---------|
|-----------------|-----------------|-----5----5------|
|-----------------|-----------------|---5-------------|
|-5-5-5-5-5-5-5-5-|-5-5-5-5-5-5-5-5-|-7---------------|
|-3-3-3-3-3-3-3-3-|-3-3-3-3-3-3-3-3-|-----------------|
|-----------------|-----------------|-----------------|
|
| E E E Q   E E E   E E E Q   E E E   E E E Q  E  E E
|-----------------|-----------------|-----------------|
|-----------------|-----------------|-----------------|
|-----5---------5-|-----5---------5-|-----2---------2-|
|---5---5-----5---|---5---5-----5---|---2---2-----2---|
|-3---------3-----|-3---------3-----|-0--------0------|
|-----------------|-----------------|-----------------|


  G         F             Am                G         F
    E  E  E H         E   E E E Q  Q.         E  E  E  H         E
|-----10----8-----------|-------5---------|-------------------------|
|--------12-6-----------|-----5----5------|-----12------------------|
|-/12-------------------|---5-------------|-/12----12---------------|
|-----------------------|-7---------------|-----------10------------|
|-----------------------|-----------------|------------8------------|
|-----------------------|-----------------|-------------------------|
|
|   E  E  E Q   E  E  E   E E E Q  E  E E     E  E  E  Q   E  E  E
|-----------------------|-----------------|-------------------------|
|-----------------------|-----------------|-------------------------|
|--------12-------10----|-----2---------2-|--------12--------10-----|
|-----12-------10----10-|---2---2-----2---|-----12--------10----10--|
|--10-------8-----------|-0--------0------|--10--------8------------|
|-----------------------|-----------------|-------------------------|


  C
  E E E E E  E E  E    E  E   E  E E  E E  E
|------------8----8-|-----------------8----8-|
|-----------/8---/8-|----------------/8---/8-|
|-------------------|------------------------|
|-5-5-5-5-----------|--5--5---5--5-----------|
|-3-3-3-3-----------|--3--3---3--3-----------|
|-------------------|------------------------|
|
| W                   +Q      H.
|-------------------|------------------------|
|-------------------|------------------------|
|-------------------|------------------------|
|-------------------|------------------------|
|-3-----------------|-(3)---/12--------------|
|-------------------|------------------------|


   E  E E E E  E  E  E    E  E  E E  E  E E  E
|--------------8-----8-|-----------------------|
|-------------/8----/8-|-----------------------|
|----------------------|----------------7----9-|
|--5--5-5-5------------|--5--5--5-5-----5----5-|
|--3--3-3-3------------|--3--3--3-3------------|
|----------------------|-----------------------|
|
|  H.             E  E    E  E  Q    E  Q    E
|----------------------|-----------------------|
|----------------------|-----------------------|
|----------------------|-----------------------|
|-------------------10-|-12-10------10-12---14-|
|-10-------------12----|-------12--------------|
|----------------------|-----------------------|


  C                                      Am
    E  E E E E E E E   E E E E E E E E   E E E Q  Q.
|--------------------|-----------------|-------5---------|
|--------------------|-----------------|-----5----5------|
|--------------------|-----------------|---5-------------|
|---5--5-5-5-5-5-5-5-|-5-5-5-5-5-5-5-5-|-7---------------|
|---3--3-3-3-3-3-3-3-|-3-3-3-3-3-3-3-3-|-----------------|
|--------------------|-----------------|-----------------|
|
|  +H      H           E E E Q   E E E   E E E Q  E  E E
|--------------------|-----------------|-----------------|
|--------------------|-----------------|-----------------|
|--------------------|-----5---------5-|-----2---------2-|
|-(14)---------------|---5---5-----5---|---2---2-----2---|
|--------------------|-3---------3-----|-0--------0------|
|--------------------|-----------------|-----------------|


  G         F             Am                G         F
    E  E  E H         E   E E E Q  Q.         E  E  E  H         E
|-----10----8-----------|-------5---------|-------------------------|
|--------12-6-----------|-----5----5------|-----12------------------|
|-/12-------------------|---5-------------|-/12----12---------------|
|-----------------------|-7---------------|-----------10------------|
|-----------------------|-----------------|------------8------------|
|-----------------------|-----------------|-------------------------|
|
|   E  E  E Q   E  E  E   E E E Q  E  E E     E  E  E  Q   E  E  E
|-----------------------|-----------------|-------------------------|
|-----------------------|-----------------|-------------------------|
|--------12-------10----|-----2---------2-|--------12--------10-----|
|-----12-------10----10-|---2---2-----2---|-----12--------10----10--|
|--10-------8-----------|-0--------0------|--10--------8------------|
|-----------------------|-----------------|-------------------------|


 Chorus 2
  F          Am        E       F                       Am
  E  E  E  E E E E E   E E E E E  E  E  E   E  E  E  E E E E E
|--------------------|--------------------|--------------------|
|--------------------|--------------------|--------------------|
|--------------------|--------------------|--------------------|
|--------------------|--------------------|--------------------|
|-3--3--3--3-7-7-8-7-|-2-2-2-0-3--3--3--3-|-3--3--3--3-7-7-7-7-|
|-1--1--1--1-5-5-5-5-|-0-0-0-0-1--1--1--1-|-1--1--1--1-5-5-5-5-|
|
| E  E  E  E E E E E   E E E E E  E  E  E   E  E  E  E E E E E
|--------------------|--------------------|--------------------|
|----------------5---|--------------------|----------------5---|
|------10------5---5-|-----9--------10----|------10------5---5-|
|---10----10-7-------|---9---9---10----10-|---10----10-7-------|
|-8------------------|-7-------8----------|-8------------------|
|--------------------|--------------------|--------------------|


  E       F                       Am        E       F
  E E E E E  E  E  E   E  E  E  E E E E E   E E E E E  E  E  E
|--------------------|--------------------|---------------------|
|--------------------|--------------------|---------------------|
|--------------------|--------------------|---------------------|
|--------------------|--------------------|---------------------|
|-2-2-2-0-3--3--3--3-|-3--3--3--3-7-7-7-7-|-2-2-2-0-3--3--3--3--|
|-0-0-0-0-1--1--1--1-|-1--1--1--1-5-5-5-5-|-0-0-0-0-1--1--1--1--|
|
| E E E E E  E  E  E   E  E  E  E E E E E   E E E E E  E  E  E
|--------------------|--------------------|---------------------|
|--------------------|----------------5---|---------------------|
|-----9--------10----|------10------5---5-|-----9--------10-----|
|---9---9---10----10-|---10----10-7-------|---9---9---10----10--|
|-7-------8----------|-8------------------|-7-------8-----------|
|--------------------|--------------------|---------------------|


 Bridge
  C
  E E E E E E E E   E E E E E E E E
|-----------------|-----------------|
|-----------------|-----------------|
|-----------------|-----------------|
|-5-5-5-5-5-5-5-5-|-5-5-5-5-5-5-5-5-|
|-3-3-3-3-3-3-3-3-|-3-3-3-3-3-3-3-3-|
|-----------------|-----------------|
|
| E E E Q   E E E   E E E Q   E E E
|-----------------|-----------------|
|-------5---------|-------5---------|
|-----5-----5---5-|-----5-----5---5-|
|---5---------5---|---5---------5---|
|-3---------------|-3---------------|
|-----------------|-----------------|


  Dm                             Em
  Gtr I
  Q.   Q  Q  E   +Q.   Q  Q  E   +Q.   Q  Q  E   +Q.   Q  Q  E
|------5-------|-------5-------|-------7-------|-------7-------|
|---------6----|----------6----|----------8----|----------8----|
|------------7-|-(7)---------9-|-(9)---------9-|-(9)-----------|
|--------------|---------------|---------------|---------------|
|-5------------|---------------|---------------|-------------5-|
|--------------|---------------|---------------|---------------|
|
| W               W               W               W
|--------------|---------------|---------------|---------------|
|--------------|---------------|---------------|---------------|
|--------------|---------------|---------------|---------------|
|-7------------|--7------------|--9------------|--9------------|
|-5------------|--5------------|--7------------|--7------------|
|--------------|---------------|---------------|---------------|


  Dm                              Em                        G   F
  +Q.   Q  Q  E   +Q.   Q  Q  E   +Q.   Q  Q.     E E E E E E E  E
|-------5-------|-------5-------|-------7-------|------------------|
|----------6----|----------6----|----------8----|------------------|
|-------------7-|-(7)---------9-|-(9)-----------|------------------|
|---------------|---------------|---------------|-9-9-9-9---5------|
|-(5)-----------|---------------|---------------|-7-7-7-7---5----3-|
|---------------|---------------|---------------|----------------1-|
|
|  W               W               W              H       E E E  E
|---------------|---------------|---------------|------------------|
|---------------|---------------|---------------|------------------|
|---------------|---------------|---------------|------------------|
|--7------------|--7------------|--9------------|-9---------5---10-|
|--5------------|--5------------|--7------------|-7---------5----8-|
|---------------|---------------|---------------|------------------|


 Chorus 3
  F             Am        E       F
   +E   E  E  E E E E E   E E E E E  E  E  E
|-----------------------|--------------------|
|-----------------------|--------------------|
|-----------------------|--------------------|
|-----------------------|--------------------|
|--(3)--3--3--3-7-7-8-7-|-2-2-2-0-3--3--3--3-|
|--(1)--1--1--1-5-5-5-5-|-0-0-0-0-1--1--1--1-|
|
|  +E   E  E  E E E E E   E E E E E  E  E  E
|-----------------------|--------------------|
|-------------------5---|--------------------|
|---------10------5---5-|-----9--------10----|
|-(10)-10----10-7-------|---9---9---10----10-|
|--(8)------------------|-7-------8----------|
|-----------------------|--------------------|


             Am        E       F
  E  E  E  E E E E E   E E E E E  E  E  E
|--------------------|--------------------|
|--------------------|--------------------|
|--------------------|--------------------|
|--------------------|--------------------|
|-3--3--3--3-7-7-7-7-|-2-2-2-0-3--3--3--3-|
|-1--1--1--1-5-5-5-5-|-0-0-0-0-1--1--1--1-|
|
| E  E  E  E E E E E   E E E E E  E  E  E
|--------------------|--------------------|
|----------------5---|--------------------|
|------10------5---5-|-----9--------10----|
|---10----10-7-------|---9---9---10----10-|
|-8------------------|-7-------8----------|
|--------------------|--------------------|


  F          Am        E       F
  E  E  E  E E E E E   E E E E E  E  E  E
|--------------------|--------------------|
|--------------------|--------------------|
|--------------------|--------------------|
|--------------------|--------------------|
|-3--3--3--3-7-7-7-7-|-2-2-2-0-3--3--3--3-|
|-1--1--1--1-5-5-5-5-|-0-0-0-0-1--1--1--1-|
|
| E  E  E  E E E E E   E E E E E  E  E  E
|--------------------|--------------------|
|----------------5---|--------------------|
|------10------5---5-|-----9--------10----|
|---10----10-7-------|---9---9---10----10-|
|-8------------------|-7-------8----------|
|--------------------|--------------------|


             Am        E       F
  E  E  E  E E E E E   E E E E E  E  E  E
|--------------------|--------------------|
|--------------------|--------------------|
|--------------------|--------------------|
|--------------------|--------------------|
|-3--3--3--3-7-7-7-7-|-2-2-2-0-3--3--3--3-|
|-1--1--1--1-5-5-5-5-|-0-0-0-0-1--1--1--1-|
|
| E  E  E  E E E E E   E E E E E  E  E  E
|--------------------|--------------------|
|----------------5---|--------------------|
|------10------5---5-|-----9--------10----|
|---10----10-7-------|---9---9---10----10-|
|-8------------------|-7-------8----------|
|--------------------|--------------------|


 Outro
  C
  Gtr I
  Q   E E E E E E   +E  E E E E E E E   +E  E E E E E E E   +E  H..
|-----------------|-------------------|-------------------|------------|
|-----------6---5-|-(5)-5-------6---5-|-(5)-5-------6---5-|-(5)--------|
|-----7-5-7-5---5-|-(5)-5-7-5-7-5---5-|-(5)-5-7-5-7-5---5-|-(5)--------|
|-----5-5-5-------|-------5-5-5-------|-------5-5-5-------|------------|
|-----------------|-------------------|-------------------|------------|
|-----------------|-------------------|-------------------|------------|
|
| E E E Q   E E E    E  E E Q   E E E    E  E E Q   E E E    W
|-----------------|-------------------|-------------------|------------|
|-----------------|-------------------|-------------------|------------|
|-----5---------5-|-------5---------5-|-------5---------5-|------------|
|---5---5-----5---|-----5---5-----5---|-----5---5-----5---|------------|
|-3---------3-----|--3----------3-----|--3----------3-----|------------|
|-----------------|-------------------|-------------------|------------|


  C
  Q   E E E  E  E E    +E  E  E E E  E E  E
|-------------------|-----------------------|
|------------5----5-|--(5)-5---------6----5-|
|-----7-5-7--5----5-|--(5)-5--7-5-7--5----5-|
|-----5-5-5---------|---------5-5-5---------|
|-------------------|-----------------------|
|-------------------|-----------------------|
|
| Q   E Q    Q.        +Q     E Q    Q    E
|-------------------|-----------------------|
|----13-8---10------|-(10)---13-8---10------|
|-------------------|--------------------10-|
|-------------------|-----------------------|
|-------------------|-----------------------|
|-------------------|-----------------------|


    E  E E E   E  E E E    E   E E E E E E E
|-----------------------|--------------------|
|-----------------------|--------------------|
|------7-7-----7--7---7-|------7-7---7-7---9-|
|------5-5-----5--5---5-|------5-5---5-5---5-|
|-----------------------|--------------------|
|-----------------------|--------------------|
|
|  +H         +E  Q   E   +H..             E
|-----------------------|--------------------|
|---------------------8-|-(8)----------------|
|-(10)-------(10)-9-----|------------------9-|
|-----------------------|--------------------|
|-----------------------|--------------------|
|-----------------------|--------------------|


  C
  +E  E E E E E  E E    +E  E E E   E  E E E
|--------------------|-----------------------|
|-------------6----5-|--(5)-5----------6---5-|
|-(9)---7-5-7-5----5-|--(5)-5-7-5---7--5---5-|
|-(5)---5-5-5--------|--------5-5---5--------|
|--------------------|-----------------------|
|--------------------|-----------------------|
|
| +H.            Q      +E  E E E   Q.     E
|--------------------|-----------------------|
|--------------------|------8-----/10------8-|
|-(9)-----------10---|-(10)---9--------------|
|--------------------|-----------------------|
|--------------------|-----------------------|
|--------------------|-----------------------|


  +E  E    E  E E E E   E    +E  H..
|--------------------------|------------*|
|-(5)-5-----------6-----5--|-(5)--------*|
|-(5)-5----7--5-7-5-----5--|-(5)--------*|
|----------5--5-5----------|------------*|
|--------------------------|------------*|
|--------------------------|------------*|
|
|  E.   E.    H        +E     E  H..
|--------------------------|------------*|
|-------8----10-------(10)-|-10---------*|
|--9-----------------------|------------*|
|--------------------------|------------*|
|--------------------------|------------*|
|--------------------------|------------*|



Duration Legend
---------------
W - whole; H - half; Q - quarter; E - 8th; S - 16th; T - 32nd; X - 64th; a - acciaccatura
+ - note tied to previous; . - note dotted; .. - note double dotted
Uncapitalized letters represent notes that are staccato (1/2 duration)
Irregular groupings are notated above the duration line
Duration letters will always appear directly above the note/fret number it represents the
duration for.  Duration letters with no fret number below them represent rests.  Multi-
bar rests are notated in the form Wxn, where n is the number of bars to rest for.  Low
melody durations appear below the staff

Tablature Legend
----------------
 h   - hammer-on
 p   - pull-off
 b   - bend
 pb  - pre-bend
 r   - bend release (if no number after the r, then release immediately)
 /\  - slide into or out of (from/to "nowhere")
 s   - legato slide
 S   - shift slide
<n> - natural harmonic
[n]  - artificial harmonic
n(n) - tapped harmonic
 ~   - vibrato
 tr  - trill
 T   - tap
 TP  - trem. picking
 PM  - palm muting
\n/  - tremolo bar dip; n = amount to dip
 \n  - tremolo bar down
 n/  - tremolo bar up
/n\  - tremolo bar inverted dip
 =   - hold bend; also acts as connecting device for hammers/pulls
 <> - volume swell (louder/softer)
 x   - on rhythm slash represents muted slash
 o   - on rhythm slash represents single note slash

Misc Legend
-----------
 |  - bar
||  - double bar
||o - repeat start
o|| - repeat end
*|  - double bar (ending)
 :  - bar (freetime)
 $  - Segno
 &  - Coda
Tempo markers - <E/E./Q/Q./H/H.> = BPM(8/16=s8/s16), where s8 = swing 8ths, s16 = swing 16ths

comments
We did not receive enough feedback on this tab! Please rate:
print report bad tab
1 2 3 4 5
4 comments total. Showing first comments.
0 reply
ImSiler99 wrote on August 19 2008, 11:13 pm

perfection

0 reply
gbrundish wrote on January 15 2009, 10:45 am

i love you

0 reply
davidcazares wrote on January 1 2010, 12:53 am

yes it was very good

I want to post or [tab]
guest
You may want to rate the tab now too:
select rating
Please do not post tabs as comments. Select "correction" instead!