Oops, an error
Loading. Please wait.

Carnival Of Crows Tab

3,409 views 3 this week
2 commentsread comments
1 2 3 4 5
excellent!
x 4
Autoscroll
+/-
esc
set tempo
stop
Contributor
Tabbers playing skills
intermediate
Hey! There's an official Ultimate Guitar app which is ideal
for learning songs when you're away from computer. Get the app
WARNING: You are trying to view
                                    content from Ultimate-Guitar.com
                                    in an unauthorized application,
                                    which is prohibited.

                                    Please use an official Ultimate
                                    Guitar Tabs application for iPhone,
                                    iPad or Android to access legitimate
                                    chords, guitar, bass, and drum tabs
                                    from Ultimate-Guitar.com database.

                                    Type "ultimate guitar tabs" in Apple
                                    App Store's or Android Market's
                                    search to find the application.
Carnival Of Crows
By The Parlor Mob


INTRO
E||------------------------|3X  |---------------------------|
B||o----------------------o|    |---------------------------|
G||------------------------|    |--------------------5~-7~--|
D||--------(triplet)-------|    |---------3h5p3-5/7—-5~-7~--|
A||o—3/5~-5-(5-5-5)-5-5~--o|    |--3-5~-5-------------------|
E||------------------------|    |---------------------------|

E|------------------| |-------------------------|2X |--------------------------|
B|------------------| |o-----------------------o|   |--------------------------|
G|------------------| |-------------------------|   |-------------------5~-7~--|
D|---(triplet)------| |---------(triplet)-------|   |---------3h5p3-5/7-5~-7~--|
A|--5-(5-5-5)-5-5~--| |o—-3/5~-5-(5-5-5)-5-5~--o|   |--3-5~-5------------------|
E|------------------| |-------------------------|   |--------------------------|

VERSE
E|--------------| |--------------------|2X |--------------------------|
B|--------------| |o------------------o|   |--------------------------|
G|--------------| |--------------------|   |-------------------5~-7~--|
D|--------------| |--------------------|   |---------3h5p3-5/7-5~-7~--|
A|--5-5-5-5-5~--| |o—-3/5~-5-5-5-5-5--o|   |--3-5~-5------------------|
E|--------------| |--------------------|   |--------------------------|

E|--------------|------------------|------------------|---------------------|
B|--------------|------------------|------------------|---------------------|
G|--------------|------------------|------------------|---------------------|
D|--------------|------------------|--5-3~------------|---------------------|
A|--5-5-5-5-5~--|--3/5~-5-5-5-5-5--|-------5-5-5-5-5--|--3-5~--------3-4-5--|
E|--------------|------------------|------------------|-------3-4-5---------|

CHORUS
E|-------------------------|2X  |-----------------|-------------------------------|
B|o-----------------------o|    |-----------------|--12-12--10-10-----------------|
G|-----7~---5~--------5~---|    |-----------------|--12-12--10-10---------10------|
D|---x-7~-x-5~-x-7~-x-5~---|    |--------------x--|--12-12--10-10--10-10--10--10--|
A|o--x-5~-x-3~-x-7~-x-3~--o|    |--------3-4-5-x--|--10-10--8--8---10-10--8---10--|
E|---x----x----x-5~-x------|    |--3-4-5-------x--|----------------8--8-------8---|

INTERLUDE
E|--------------------------|------------------|-------------------------------|
B|--------------------------|------------------|--12-12--10-10-----------------|
G|-------------------7-10~--|--10-7------------|--12-12--10-10---------10------|
D|--------------7-10--------|-------10-7-------|--12-12--10-10--10-10--10--10--|
A|---------8-10-------------|------------10-8--|--10-10--8--8---10-10--8---10--|
E|--10-10~------------------|------------------|----------------8--8-------8---|

SHORT SOLO
E|--------------------|---------------------|
B|--------------------|---------------------|
G|--------------------|--------------5~-7~--|
D|------3-------------|----3h5p3-5/7-5~-7~--|
A|--5-5---5-3---------|--5------------------|
E|------------5-4-3~--|---------------------|

E|-----------------------|----8b10-8b10-8b10-8~--|--5-----|
B|--8b10b8-6-8-6---6-8~--|--6--------------------|----6~--|
G|---------------7-------|-----------------------|--------|
D|-----------------------|-----------------------|--------|
A|-----------------------|-----------------------|--------|
E|-----------------------|-----------------------|--------|

VERSE
E|--------------| |--------------------|2X |--------------------------|
B|--------------| |o------------------o|   |--------------------------|
G|--------------| |--------------------|   |-------------------5~-7~--|
D|--------------| |--------------------|   |---------3h5p3-5/7-5~-7~--|
A|--5-5-5-5-5~--| |o—-3/5~-5-5-5-5-5--o|   |--3-5~-5------------------|
E|--------------| |--------------------|   |--------------------------|

E|--------------|------------------|------------------|---------------------|
B|--------------|------------------|------------------|---------------------|
G|--------------|------------------|------------------|---------------------|
D|--------------|------------------|--5-3~------------|---------------------|
A|--5-5-5-5-5~--|--3/5~-5-5-5-5-5--|-------5-5-5-5-5--|--3-5~--------3-4-5--|
E|--------------|------------------|------------------|-------3-4-5---------|

CHORUS
E|-------------------------|2X |-----------------|-------------------------------|
B|o-----------------------o|   |-----------------|--12-12--10-10-----------------|
G|-----7~---5~--------5~---|   |-----------------|--12-12--10-10---------10------|
D|---x-7~-x-5~-x-7~-x-5~---|   |--------------x--|--12-12--10-10--10-10--10--10--|
A|o--x-5~-x-3~-x-7~-x-3~--o|   |--------3-4-5-x--|--10-10--8--8---10-10--8---10--|
E|---x----x----x-5~-x------|   |--3-4-5-------x--|----------------8--8-------8---|

INTERLUDE
E|--------------------------|------------------|---------------------------------|
B|--------------------------|------------------|--12-12--10-10-------------------|
G|-------------------7-10~--|--10-7------------|--12-12--10-10---------10--------|
D|--------------7-10--------|-------10-7-------|--12-12--10-10--10-10--10—-10\\--|
A|---------8-10-------------|------------10-8--|--10-10--8--8---10-10--8---10\\--|
E|--10-10~------------------|------------------|----------------8--8-------8\\\--|

E|--------------------|-----------------|-------------------------------|
B|--------------------|-----------------|--12-12--10-10-----------------|
G|--------------------|-----------------|--12-12--10-10---------10------|
D|------3-------------|----3h5p3-5/7-x--|--12-12--10-10--10-10--10—-10--|
A|--5-5---5-3---------|--5-----------x--|--10-10--8--8---10-10--8---10--|
E|------------5-4-3~--|--------------x--|----------------8--8-------8---|

E|--------------------------|------------------|-------------------------------|
B|--------------------------|------------------|--12-12--10-10-----------------|
G|-------------------7-10~--|--10-7------------|--12-12--10-10---------10------|
D|--------------7-10--------|-------10-7-------|--12-12--10-10--10-10--10—-10--|
A|---------8-10-------------|------------10-8--|--10-10--8--8---10-10--8---10--|
E|--10-10~------------------|------------------|----------------8--8-------8---|

E|--------------------|--------------------------|
B|--------------------|--------------------------|
G|--------------------|-------------------5~-7~--|
D|------3-------------|---------3h5p3-5/7-5~-7~--|
A|-—5-5---5-3---------|--3-5~-5------------------|
E|------------5-4-3~--|--------------------------|

IN BETWEEN VOCAL PARTS
E|---------------------|
B|---------------------|
G|--------------5~-7~--|
D|----3h5p3-5/7-5~-7~--|
A|--5------------------|
E|---------------------|

PRECHORUS
E|------------|-----------|---------------|
B|------------|-----------|---------------|
G|------------|-----------|---------------|
D|------------|----3~-----|----3h5p3-5/7--|
A|---------3--|--5----5~--|--5------------|
E|--3~-4-5----|-----------|---------------|

CHORUS
E|-------------------------|-------------| |---------|4X
B|-------------------------|-------------| |o-------o|
G|-----7~---5~--------5~---|----7~---5~--| |---5-7~--|
D|---x-7~-x-5~-x-7~-x-5~---|--x-7~-x-5~--| |---5-7~--|
A|---x-5~-x-3~-x-7~-x-3~---|--x-5~-x-3~--| |o-------o|
E|---x----x----x-5~-x------|--x----x-----| |---------|

PLAY THIS DURING LONG SOLO
E|------------------------|6X |-------------| |----------|4X  |--(slide)---|
B|o----------------------o|   |-------------| |o--------o|    |------------|
G|------------------------|   |-------------| |---5~-7~--|    |--////////--|
D|---------------3--------|   |--3h5p3-5/7--| |---5~-7~--|    |--////////--|
A|o--------3-4-5---5~-5—-o|   |-------------| |o--------o|    |------------|
E|---3-4-5----------------|   |-------------| |----------|    |------------|

                ______________________really_fast_part_____________________________
LONG SOLO      /                                                                   \
E|--15b17-13~--|--15b17-15-13--|--(triplet)--|--(triplet)--|--(triplet)--|--(triplet)-|
B|-------------|---------------|--15-13------|-------------|--15-13------|------------|
G|-------------|---------------|--------14---|--14-12------|--------14---|--14-12-----|
D|-------------|---------------|-------------|--------15---|-------------|--------15--|
A|-------------|---------------|-------------|-------------|-------------|------------|
E|-------------|---------------|-------------|-------------|-------------|------------|

E|----------------------|--------------13--------|---------------------------|----------------|
B|----------------------|--------13b15----13b15--|--15-18-15-18-15-18-15-18--|--18b20-18-15~--|
G|-----------12---------|--12-14-----------------|---------------------------|----------------|
D|--15-12-15----15-12~--|------------------------|---------------------------|----------------|
A|----------------------|------------------------|---------------------------|----------------|
E|----------------------|------------------------|---------------------------|----------------|

INTERLUDE
E|-------------------------------|--------------------------|------------------|
B|--12-12--10-10-----------------|--------------------------|------------------|
G|--12-12--10-10---------10------|-------------------7-10~--|--10-7------------|
D|--12-12--10-10--10-10--10--10--|--------------7-10--------|-------10-7-------|
A|--10-10--8--8---10-10--8---10--|---------8-10-------------|------------10-8--|
E|----------------8--8-------8---|--10-10~------------------|------------------|

E|-------------------------------|--------------------|-----------------|
B|--12-12--10-10-----------------|--------------------|-----------------|
G|--12-12--10-10---------10------|--------------------|-----------------|
D|--12-12--10-10--10-10--10--10--|------3-------------|----3h5p3-5/7-x--|
A|--10-10--8--8---10-10--8---10--|--5-5---5-3---------|--5-----------x--|
E|----------------8--8-------8---|------------5-4-3~--|--------------x--|

E|-------------------------------|--------------------------|------------------|
B|--12-12--10-10-----------------|--------------------------|------------------|
G|--12-12--10-10---------10------|-------------------7-10~--|--10-7------------|
D|--12-12--10-10--10-10--10--10--|--------------7-10--------|-------10-7-------|
A|--10-10--8--8---10-10--8---10--|---------8-10-------------|------------10-8--|
E|----------------8--8-------8---|--10-10~------------------|------------------|

E|-------------------------------|--------------------|---------------|
B|--12-12--10-10-----------------|--------------------|---------------|
G|--12-12--10-10---------10------|--------------------|---------------|
D|--12-12--10-10--10-10--10--10--|------3-------------|----3h5p3-5/7--|
A|--10-10--8--8---10-10--8---10--|--5-5---5-3---------|--5------------|
E|----------------8--8-------8---|------------5-4-3~--|---------------|

CHORUS
E|-------------------------|2X
B|o-----------------------o|
G|-----7~---5~--------5~---|
D|---x-7~-x-5~-x-7~-x-5~---|
A|o--x-5~-x-3~-x-7~-x-3~--o|
E|---x----x----x-5~-x------|

ENDING
E|------------------------|4X  |-----------------------|2X  |------------------------|2X
B|o----------------------o|    |o---------------------o|    |o----------------------o|
G|------------------------|    |---------------3-------|    |------------------------|
D|---------------3--------|    |---------3-4-5---5~-5--|    |---------------3--------|
A|o--------3-4-5---5~-5—-o|    |o--3-4-5--------------o|    |o--------3-4-5---5~-5--o|
E|---3-4-5----------------|    |-----------------------|    |---3-4-5----------------|

E|-----------------------|----------------------|------------------|
B|-----------------------|----------------------|------------------|
G|-----------------------|--------------3-------|------------------|
D|---------------3-------|--------3-4-5---5~-5--|--------------3~--|
A|---------3-4-5---5~-5—-|--3-4-5---------------|--------3-4-5-----|
E|---3-4-5---------------|----------------------|--3-4-5-----------|

E|---------------|------------||
B|---------------|------------||
G|---------------|--////14~~--||
D|---------------|--////15~~--||
A|---------------|--////16~~--||
E|--3~~-2~~-1~~--|------------||
comments
print report bad tab
2 comments total.
0 reply
dgargett95 wrote on April 19 2009, 06:12 pm

Great job and what a massive effort!!!!

0 reply
Turkeyburger wrote on January 31 2010, 07:56 pm

Nice work.. You should do Tide of Tears

5* either way

I want to post or [tab]
guest
You may want to rate the tab now too:
select rating
Please do not post tabs as comments. Select "correction" instead!