Oops, an error
Loading. Please wait.

Miscarriage Tab

10,875 views 42 this week
1 commentread comment
1 2 3 4 5
worth learning
x 1
Autoscroll
+/-
esc
set tempo
stop
Contributor
Tuning
A# F A# D# G C
WARNING: You are trying to view
                                    content from Ultimate-Guitar.com
                                    in an unauthorized application,
                                    which is prohibited.

                                    Please use an official Ultimate
                                    Guitar Tabs application for iPhone,
                                    iPad or Android to access legitimate
                                    chords, guitar, bass, and drum tabs
                                    from Ultimate-Guitar.com database.

                                    Type "ultimate guitar tabs" in Apple
                                    App Store's or Android Market's
                                    search to find the application.
Song: Miscarriage
Artist: The Plot In You
Album: First Born
Year: 2011
Tuning: Drop A#

Check out my cover of this song on youtube!
http://www.youtube.com/watch?v=I6v3tz1iMG4



GUITAR 1
  Intro:
C ||----------------------------|------------------------------|
G ||----------------------------|------------------------------|
D#||----------------------------|------------------------------|
A#||----------------------------|------------------------------|
F ||----------------------------|------------------------------|
A#||--3pb---0----0----0---------|--3pb---0----0----0----0----0-|


                PM PM PM PM PM PM PM PM                                 
----------------------------------------|------------------------------|
----------------------------------------|------------------------------|
----------------------------------------|------------------------------|
----------------------------------------|------------------------------|
----------------------------------------|------------------------------|
------0----0----0--0--0--0--0--0--0--0--|--3pb---0----0----0----0----0-|


-------------------------------|--------------------------|
-------------------------------|--------------------------|
-------------------------------|--------------------------|
---------------------------12--|--------------------------|
-----------------------12------|--------------------------|
------0----0----0--12----------|--0\----------0----0----0-|


                PM PM PM PM PM PM PM PM                                   
----------------------------------------|------------------------------|
----------------------------------------|------------------------------|
----------------------------------------|------------------------------|
----------------------------------------|------------------------------|
----------------------------------------|------------------------------|
------0----0----0--0--0--0--0--0--0--0--|--3pb---0----0----0----0----0-|




Verse:
-------------------------------|-----|---------------------------|
-------------------------------|-----|---------------------------|
-------------------------------|-----|---------------------------|
---------------------------12--|-----|---------------------------|
-----------------------12------|-----|---------------------------|
------0----0----0--12----------|-----|--3pb----0-----0-----0-----|


------------------------------|---------------------------|
------------------------------|---------------------------|
------------------------------|---------------------------|
------------------------------|---------------------------|
------------------------------|---------------------------|
--0-0--0--0-0--0--0-0-0-0-0-0-|--3pb----0-----0-----0-----|


------------------------------|----------------------------------|
------------------------------|----------------------------------|
------------------------------|--7-7-7-7-7-7-7-7-7-7-7-7-7-7-7-7-|
------------------------------|--x-x-x-x-x-x-x-x-x-x-x-x-x-x-x-x-|
-----------------6-----5------|--5-5-5-5-5-5-5-5-5-5-5-5-5-5-5-5-|
--0-0--0--0-0--0---0-0----0-0-|----------------------------------|


--------------------------------------------------|
--------------------------------------------------|
--15-15-15-15-15-15-15-15-14-14-14-14-14-14-14-14-|
---x--x--x--x--x--x--x--x--x--x--x--x--x--x--x--x-|
--13-13-13-13-13-13-13-13-12-12-12-12-12-12-12-12-|
--------------------------------------------------|


----------------------------------|
----------------------------------|
--7-7-7-7-7-7-7-7-7-7-7-7-7-7-7-7-|
--x-x-x-x-x-x-x-x-x-x-x-x-x-x-x-x-|
--5-5-5-5-5-5-5-5-5-5-5-5-5-5-5-5-|
----------------------------------|


--------------------------------------------------|
--------------------------------------------------|
--17-17-17-17-17-17-17-17-15-15-15-15-15-15-15-15-|
---x--x--x--x--x--x--x--x--x--x--x--x--x--x--x--x-|
--15-15-15-15-15-15-15-15-13-13-13-13-13-13-13-13-|
--------------------------------------------------|


  PM PM       PM     PM               PM PM                 
-----------------------------|--------------------------|
-----------------------------|--------------------------|
-----------------------------|--------------------------|
-----------------------------|--------------------------|
--0--0--5--3-----------------|-----------------3--3--3--|
--0--0--5--3--0--13--0--13b--|-----0--0--0--0--5--5--5--|


  PM PM       PM     PM               PM PM              
-----------------------------|--------------------------|
-----------------------------|--------------------------|
-----------------------------|--------------------------|
-----------------------------|--------------------------|
--0--0--5--3-----------------|-----------------5--5--5--|
--0--0--5--3--0--13--0--13b--|-----0--0--0--0--7--7--7--|




Breakdown:
  PM PM PM PM    PM     PM PM PM PM     
---------------------------------------|
---------------------------------------|
---------------------------------------|
---------------------------------------|
--0--0--0--0-----0------0--0--0--0-----|
--0--0--0--0-----0------0--0--0--0-----|


  PM     PM PM   PM PM   PM PM   PM PM PM                                  
------------------------------------------|-------------------------------|
------------------------------------------|---------11---------11---------|
------------------------------------------|-----10---------10---------10--|
------------------------------------------|--8----------8----------8------|
--0------0--0----0--0----0--0----0--0--0--|-------------------------------|
--0------0--0----0--0----0--0----0--0--0--|-------------------------------|


--------------------------------|-------------------|-------------------|
--11---------11---------11------|-------------------|-------------------|
---------10---------10------10--|-------------------|-------------------|
------8----------8--------------|-------------------|-------------------|
--------------------------------|--0----------------|-------------------|
--------------------------------|--0----------------|-------------------|




Chorus:
------------------------|-------------------------|------------------------|
------------------------|-------------------------|------------------------|
-----------10-----------|-----------10------------|-----------10-----------|
--------8---------------|--------8--------8-------|--------8---------------|
-----8------------------|-----8----------------8--|-----8------------------|
------------------------|-------------------------|------------------------|


-------------------------|------------------------|-------------------------|
-------------------------|------------------------|-------------------------|
-----------10------------|-----------10-----------|-----------10------------|
--------8--------8-------|--------8---------------|--------8--------8-------|
-----8----------------8--|-----8------------------|-----8----------------8--|
-------------------------|------------------------|-------------------------|


------------------------|-------------------------|-------------------|
------------------------|-------------------------|-------------------|
-----------10-----------|-----------10------------|-------------------|
--------8---------------|--------8--------8-------|-------------------|
-----8------------------|-----8----------------8--|--0----------------|
------------------------|-------------------------|--0----------------|




                                   Breakdown:
-------------------|-------|-------|------------------------------|
-------------------|-------|-------|------------------------------|
-------------------|-------|-------|------------------------------|
-------------------|-------|-------|------------------------------|
-------------------|-------|-------|------------------------------|
-------------------|-------|-------|--3pb---0----0----0----0----0-|


                PM PM PM PM PM PM PM PM                                 
----------------------------------------|------------------------------|
----------------------------------------|------------------------------|
----------------------------------------|------------------------------|
----------------------------------------|------------------------------|
----------------------------------------|------------------------------|
------0----0----0--0--0--0--0--0--0--0--|--3pb---0----0----0----0----0-|


                                  PM PM PM    PM PM PM    PM   PM  
-------------------------------|----------------------------------|
-------------------------------|----------------------------------|
-------------------------------|----------------------------------|
---------------------------12--|----------------------------------|
-----------------------12------|--0--0--0-----0--0--0-----0----0--|
------0----0----0--12----------|--0--0--0-----0--0--0-----0----0--|


  PM PM    PM    PM PM PM PM      PM PM PM          PM   PM  
-------------------------------|----------------------------|
-------------------------------|----------------------------|
-------------------------------|----------------------------|
-------------------------------|----------------------------|
--0--0-----0-----0--0--0--0----|--0--0--0-----------0----0--|
--0--0-----0-----0--0--0--0----|--0--0--0-----------0----0--|




  PM   PM PM      PM PM PM    Bridge:                                            
-----------------------------|-----------------------|-------------------|
-----------------------------|---------10------------|-------------------|
-----------------------------|-----------------10----|-------------------|
-----------------------------|--7--------------------|-------------------|
--0----0--0-------0--0--0----|-----------------------|-------------------|
--0----0--0-------0--0--0----|-----------------------|-------------------|




   	Verse:
-----------------------|-------------------|--------------------------|
---------10------------|-------------------|--------------------------|
-----------------12----|-------------------|--7--7--7--7--7--7--7--7--|
--8--------------------|-------------------|--x--x--x--x--x--x--x--x--|
-----------------------|-------------------|--5--5--5--5--5--5--5--5--|
-----------------------|-------------------|--------------------------|

   
--------------------------|----------------------------------|
--------------------------|----------------------------------|
--7--7--7--7--7--7--7--7--|--14--14--14--14--14--14--14--14--|
--x--x--x--x--x--x--x--x--|---x---x---x---x---x---x---x---x--|
--5--5--5--5--5--5--5--5--|--12--12--12--12--12--12--12--12--|
--------------------------|----------------------------------|


----------------------------------|----------------------------------|
----------------------------------|----------------------------------|
--14--14--14--14--14--14--14--14--|--15--15--15--15--15--15--15--15--|
---x---x---x---x---x---x---x---x--|---x---x---x---x---x---x---x---x--|
--12--12--12--12--12--12--12--12--|--13--13--13--13--13--13--13--13--|
----------------------------------|----------------------------------|


----------------------------------|----------------------------------|
----------------------------------|----------------------------------|
--15--15--15--15--15--15--15--15--|--19--19--19--19--19--19--19--19--|
---x---x---x---x---x---x---x---x--|---x---x---x---x---x---x---x---x--|
--13--13--13--13--13--13--13--13--|--17--17--17--17--17--17--17--17--|
----------------------------------|----------------------------------|

  
----------------------------------|-----------------------------|
----------------------------------|-----------------------------|
--17--17--17--17--17--17--17--17--|-----------------------------|
---x---x---x---x---x---x---x---x--|-----------------------------|
--15--15--15--15--15--15--15--15--|-----------------------------|
----------------------------------|-----0-----0-----0-0-0-0-0-0-|


---------------------------|-----------------------------|
---------------------------|-----------------------------|
---------------------------|-----------------------------|
---------------------------|-----------------------------|
---------------------------|-----------------------------|
-----0-----0-----0--0-0----|-----0-----0-----0-0-0-0-0-0-|




	Breakdown:
                          PM PM PM    PM PM PM    PM PM PM    PM PM PM     
-----------------------|--------------------------------------------------|
-----------------------|--------------------------------------------------|
-----------------------|--------------------------------------------------|
-----------------------|--------------------------------------------------|
-----------------------|--0--0--0-----0--0--0-----0--0--0-----0--0--0-----|
-----0-----0-----------|--0--0--0-----0--0--0-----0--0--0-----0--0--0-----|


  PM PM PM PM PM PM PM PM PM PM PM PM PM  
-----------------------------------------|
-----------------------------------------|
-----------------------------------------|
-----------------------------------------|
--0--0--0--0--0--0--0--0--0--0--0--0--0--|
--0--0--0--0--0--0--0--0--0--0--0--0--0--|


  PM PM PM    PM PM PM    PM PM PM    PM PM PM                                 
--------------------------------------------------|---------------------------|
--------------------------------------------------|---------------------------|
--------------------------------------------------|---------------------------|
--------------------------------------------------|--------7------------7-----|
--0--0--0-----0--0--0-----0--0--0-----0--0--0-----|-----8-----8------8-----8--|
--0--0--0-----0--0--0-----0--0--0-----0--0--0-----|--7-----------7-7----------|


  PM PM PM    PM PM PM    PM PM PM    PM PM PM     
--------------------------------------------------|
--------------------------------------------------|
--------------------------------------------------|
--------------------------------------------------|
--0--0--0-----0--0--0-----0--0--0-----0--0--0-----|
--0--0--0-----0--0--0-----0--0--0-----0--0--0-----|


  PM PM PM PM PM PM PM PM PM PM PM PM PM  
-----------------------------------------|
-----------------------------------------|
-----------------------------------------|
-----------------------------------------|
--0--0--0--0--0--0--0--0--0--0--0--0--0--|
--0--0--0--0--0--0--0--0--0--0--0--0--0--|


  PM PM PM    PM PM PM    PM PM PM    PM PM PM                                 
--------------------------------------------------|---------------------------|
--------------------------------------------------|---------------------------|
--------------------------------------------------|---------------------------|
--------------------------------------------------|--------7------------7-----|
--0--0--0-----0--0--0-----0--0--0-----0--0--0-----|-----8-----8------8-----8--|
--0--0--0-----0--0--0-----0--0--0-----0--0--0-----|--7-----------7-7----------|




Chorus:
------------------------|-------------------------|------------------------|
------------------------|-------------------------|------------------------|
-----------10-----------|-----------10------------|-----------10-----------|
--------8---------------|--------8--------8-------|--------8---------------|
-----8------------------|-----8----------------8--|-----8------------------|
------------------------|-------------------------|------------------------|


-------------------------|------------------------|-------------------------|
-------------------------|------------------------|-------------------------|
-----------10------------|-----------10-----------|-----------10------------|
--------8--------8-------|--------8---------------|--------8--------8-------|
-----8----------------8--|-----8------------------|-----8----------------8--|
-------------------------|------------------------|-------------------------|


------------------------|-------------------------|
------------------------|-------------------------|
-----------10-----------|-----------10------------|
--------8---------------|--------8--------8-------|
-----8------------------|-----8----------------8--|
------------------------|-------------------------|




Outro:  
--13--13--13--13--13--13--13--13--|--13--15--15--15--15--17--17--17--|
----------------------------------|----------------------------------|
----------------------------------|----------------------------------|
----------------------------------|----------------------------------|
----------------------------------|----------------------------------|
----------------------------------|----------------------------------|


--13--13--13--13--13--13--13--13--|--13--12--12--12--12--12--12--12--|
----------------------------------|----------------------------------|
----------------------------------|----------------------------------|
----------------------------------|----------------------------------|
----------------------------------|----------------------------------|
----------------------------------|----------------------------------|


--13--13--13--13--13--13--13--13--|--13--15--15--15--15--17--17--17--|
----------------------------------|----------------------------------|
----------------------------------|----------------------------------|
----------------------------------|----------------------------------|
----------------------------------|----------------------------------|
----------------------------------|----------------------------------|


--13--13--13--13--13--13--13--13--|--13--12--12--12--12--12--12--12--|
----------------------------------|----------------------------------|
----------------------------------|----------------------------------|
----------------------------------|----------------------------------|
----------------------------------|----------------------------------|
----------------------------------|----------------------------------|


--13--13--13--13--13--13--13--13--|--13--15--15--15--15--17--17--17--|
----------------------------------|----------------------------------|
----------------------------------|----------------------------------|
----------------------------------|----------------------------------|
----------------------------------|----------------------------------|
----------------------------------|----------------------------------|


--13--13--13--13--13--13--13--13--|--13--12--12--12--12--12--12--12--|
----------------------------------|----------------------------------|
----------------------------------|----------------------------------|
----------------------------------|----------------------------------|
----------------------------------|----------------------------------|
----------------------------------|----------------------------------|

   
--13--13--13--13--13--13--13--13--|--13--15--15--15--15--17--17--17--|
----------------------------------|----------------------------------|
----------------------------------|----------------------------------|
----------------------------------|----------------------------------|
----------------------------------|----------------------------------|
----------------------------------|----------------------------------|


--13--13--13--13--13--13--13--13--|--13--12--12--12--12--12--12--12--|
----------------------------------|----------------------------------|
----------------------------------|----------------------------------|
----------------------------------|----------------------------------|
----------------------------------|----------------------------------|
----------------------------------|----------------------------------|


--13----------------||
--------------------||
--------------------||
--------------------||
--------------------||
--------------------||






GUITAR 2




Intro:
C ||-------|------------------------------|
G ||-------|------------------------------|
D#||-------|------------------------------|
A#||-------|------------------------------|
F ||-------|------------------------------|
A#||-------|--3pb---0----0----0----0----0-|


                PM PM PM PM PM PM PM PM                                 
----------------------------------------|------------------------------|
----------------------------------------|------------------------------|
----------------------------------------|------------------------------|
----------------------------------------|------------------------------|
----------------------------------------|------------------------------|
------0----0----0--0--0--0--0--0--0--0--|--3pb---0----0----0----0----0-|


-------------------------------|--------------------------|
-------------------------------|--------------------------|
-------------------------------|--------------------------|
---------------------------12--|--------------------------|
-----------------------12------|--------------------------|
------0----0----0--12----------|--0\----------0----0----0-|


                PM PM PM PM PM PM PM PM                                 
----------------------------------------|------------------------------|
----------------------------------------|------------------------------|
----------------------------------------|------------------------------|
----------------------------------------|------------------------------|
----------------------------------------|------------------------------|
------0----0----0--0--0--0--0--0--0--0--|--3pb---0----0----0----0----0-|




   	Verse:
-------------------------------|-----|---------------------------|
-------------------------------|-----|---------------------------|
-------------------------------|-----|---------------------------|
---------------------------12--|-----|---------------------------|
-----------------------12------|-----|---------------------------|
------0----0----0--12----------|-----|--3pb----0-----0-----0-----|


------------------------------|---------------------------|
------------------------------|---------------------------|
------------------------------|---------------------------|
------------------------------|---------------------------|
------------------------------|---------------------------|
--0-0--0--0-0--0--0-0-0-0-0-0-|--3pb----0-----0-----0-----|


------------------------------|---------------------------|
------------------------------|---------------------------|
------------------------------|---------------------------|
------------------------------|---------------------------|
-----------------6-----5------|---------------------------|
--0-0--0--0-0--0---0-0----0-0-|--3pb----0-----0-----0-----|

   
------------------------------|---------------------------|
------------------------------|---------------------------|
------------------------------|---------------------------|
------------------------------|---------------------------|
------------------------------|---------------------------|
--0-0--0--0-0--0--0-0-0-0-0-0-|--3pb----0-----0-----0-----|


                                 PM PM       PM     PM       
------------------------------|-----------------------------|
------------------------------|-----------------------------|
------------------------------|-----------------------------|
------------------------------|-----------------------------|
-----------------6-----5------|--0--0--5--3-----------------|
--0-0--0--0-0--0---0-0----0-0-|--0--0--5--3--0--13--0--13b--|


        PM PM                PM PM       PM     PM       
--------------------------|-----------------------------|
--------------------------|-----------------------------|
--------------------------|-----------------------------|
--------------------------|-----------------------------|
-----------------3--3--3--|--0--0--5--3-----------------|
-----0--0--0--0--5--5--5--|--0--0--5--3--0--13--0--13b--|




	Breakdown:
        PM PM                PM PM PM PM    PM     PM PM PM PM     
--------------------------|---------------------------------------|
--------------------------|---------------------------------------|
--------------------------|---------------------------------------|
--------------------------|---------------------------------------|
-----------------5--5--5--|--0--0--0--0-----0------0--0--0--0-----|
-----0--0--0--0--7--7--7--|--0--0--0--0-----0------0--0--0--0-----|


  PM     PM PM   PM PM   PM PM   PM PM PM  
------------------------------------------|
------------------------------------------|
------------------------------------------|
------------------------------------------|
--0------0--0----0--0----0--0----0--0--0--|
--0------0--0----0--0----0--0----0--0--0--|


  PM PM PM PM    PM     PM PM PM PM     
---------------------------------------|
---------------------------------------|
---------------------------------------|
---------------------------------------|
--0--0--0--0-----0------0--0--0--0-----|
--0--0--0--0-----0------0--0--0--0-----|


  PM     PM PM   PM PM   PM PM   PM PM PM                      
------------------------------------------|-------------------|
------------------------------------------|-------------------|
------------------------------------------|-------------------|
------------------------------------------|-------------------|
--0------0--0----0--0----0--0----0--0--0--|--0----------------|
--0------0--0----0--0----0--0----0--0--0--|--0----------------|




	Chorus:
-------------------|-----------------------|--------------------------|
-------------------|-----------------------|--------------------------|
-------------------|-----------------------|--------------------------|
-------------------|-----------------------|--------------------------|
-------------------|-----------------------|--------------------------|
-------------------|--0--0-----------0--0--|-----0--0--0-----0-----0--|

   
-----------------------|--------------------------|-----------------------|
-----------------------|--------------------------|-----------------------|
-----------------------|--------------------------|-----------------------|
-----------------------|--------------------------|-----------------------|
-----------------------|--------------------------|-----------------------|
--8--8-----------8--8--|-----8--8--8-----8-----8--|--5--5-----------5--5--|


   
--------------------------|-----------------------|--------------------------|
--------------------------|-----------------------|--------------------------|
--------------------------|-----------------------|--------------------------|
--------------------------|-----------------------|--------------------------|
--------------------------|-----------------------|--------------------------|
-----5--5--5-----5-----5--|--8--8-----------8--8--|-----8--8--8-----8-----8--|


-------------------|-------------------|------------------------------|
-------------------|-------------------|------------------------------|
-------------------|-------------------|------------------------------|
-------------------|-------------------|------------------------------|
--0----------------|-------------------|------------------------------|
--0----------------|-------------------|--3pb---0----0----0----0----0-|




	Breakdown
-------------------------|------------------------------|
-------------------------|------------------------------|
-------------------------|------------------------------|
-------------------------|------------------------------|
-------------------------|------------------------------|
------0----0-------------|--3pb---0----0----0----0----0-|


                PM PM PM PM PM PM PM PM                                 
----------------------------------------|------------------------------|
----------------------------------------|------------------------------|
----------------------------------------|------------------------------|
----------------------------------------|------------------------------|
----------------------------------------|------------------------------|
------0----0----0--0--0--0--0--0--0--0--|--3pb---0----0----0----0----0-|


                                  PM PM PM    PM PM PM    PM   PM  
-------------------------------|----------------------------------|
-------------------------------|----------------------------------|
-------------------------------|----------------------------------|
---------------------------12--|----------------------------------|
-----------------------12------|--0--0--0-----0--0--0-----0----0--|
------0----0----0--12----------|--0--0--0-----0--0--0-----0----0--|


  PM PM    PM    PM PM PM PM      PM PM PM          PM   PM  
-------------------------------|----------------------------|
-------------------------------|----------------------------|
-------------------------------|----------------------------|
-------------------------------|----------------------------|
--0--0-----0-----0--0--0--0----|--0--0--0-----------0----0--|
--0--0-----0-----0--0--0--0----|--0--0--0-----------0----0--|




  PM   PM PM      PM PM PM    Bridge:                                                         
-----------------------------|-------------------|-------------------|
-----------------------------|-------------------|-------------------|
-----------------------------|-------------------|-------------------|
-----------------------------|-------------------|-------------------|
--0----0--0-------0--0--0----|--0----------------|-------------------|
--0----0--0-------0--0--0----|--0----------------|-------------------|




  Verse:
-------------------|-------------------|-------------------------|
-------------------|-------------------|-------------------------|
-------------------|-------------------|-------------------------|
-------------------|-------------------|-------------------------|
--8----------------|-------------------|-------------------------|
--8----------------|-------------------|--0--0--0--0-------0--0--|

   
-------------------------|-------------------------|-------------------------|
-------------------------|-------------------------|-------------------------|
-------------------------|-------------------------|-------------------------|
-------------------------|-------------------------|-------------------------|
-------------------------|-------------------------|-------------------------|
--0--0-------0--0--0--0--|--3--3--3--3-------3--3--|--3--3-------3--3--3--3--|


-------------------------|-------------------------|-------------------------|
-------------------------|-------------------------|-------------------------|
-------------------------|-------------------------|-------------------------|
-------------------------|-------------------------|-------------------------|
-------------------------|-------------------------|-------------------------|
--5--5--5--5-------5--5--|--5--5-------5--5--5--5--|--8--8--8--8-------8--8--|


                            PM PM PM PM PM PM PM PM PM PM PM PM PM PM PM PM  
-------------------------|--------------------------------------------------|
-------------------------|--------------------------------------------------|
-------------------------|--------------------------------------------------|
-------------------------|--------------------------------------------------|
-------------------------|--------------------------------------------------|
--8--8-------8--8--8--8--|--0--0--0--0--0--0--0--0--0--0--0--0--0--0--0--0--|


  PM PM PM PM PM PM PM PM PM PM PM PM PM PM PM PM  
--------------------------------------------------|
--------------------------------------------------|
--------------------------------------------------|
--------------------------------------------------|
--------------------------------------------------|
--0--0--0--0--0--0--0--0--0--0--0--0--0--0--0--0--|


  PM PM PM PM PM PM PM PM PM PM PM PM PM PM PM PM  
--------------------------------------------------|
--------------------------------------------------|
--------------------------------------------------|
--------------------------------------------------|
--------------------------------------------------|
--0--0--0--0--0--0--0--0--0--0--0--0--0--0--0--0--|


  PM PM PM PM PM PM PM PM                    
-----------------------------------|
-----------------------------------|
-----------------------------------|
-----------------------------------|
-----------------------------------|
--0--0--0--0--0--0--0--0-----------|




Breakdown:
  PM PM PM    PM PM PM    PM PM PM    PM PM PM     
--------------------------------------------------|
--------------------------------------------------|
--------------------------------------------------|
--------------------------------------------------|
--0--0--0-----0--0--0-----0--0--0-----0--0--0-----|
--0--0--0-----0--0--0-----0--0--0-----0--0--0-----|


  PM PM PM PM PM PM PM PM PM PM PM PM PM  
-----------------------------------------|
-----------------------------------------|
-----------------------------------------|
-----------------------------------------|
--0--0--0--0--0--0--0--0--0--0--0--0--0--|
--0--0--0--0--0--0--0--0--0--0--0--0--0--|


  PM PM PM    PM PM PM    PM PM PM    PM PM PM     
--------------------------------------------------|
--------------------------------------------------|
--------------------------------------------------|
--------------------------------------------------|
--0--0--0-----0--0--0-----0--0--0-----0--0--0-----|
--0--0--0-----0--0--0-----0--0--0-----0--0--0-----|


  PM PM PM PM PM PM PM PM           
-----------------------------------|
-----------------------------------|
-----------------------------------|
-----------------------------7-----|
--0--0--0--0--0--0--------8-----8--|
--0--0--0--0--0--0--7--7-----------|


  PM PM PM    PM PM PM    PM PM PM    PM PM PM     
--------------------------------------------------|
--------------------------------------------------|
--------------------------------------------------|
--------------------------------------------------|
--0--0--0-----0--0--0-----0--0--0-----0--0--0-----|
--0--0--0-----0--0--0-----0--0--0-----0--0--0-----|


  PM PM PM PM PM PM PM PM PM PM PM PM PM  
-----------------------------------------|
-----------------------------------------|
-----------------------------------------|
-----------------------------------------|
--0--0--0--0--0--0--0--0--0--0--0--0--0--|
--0--0--0--0--0--0--0--0--0--0--0--0--0--|


  PM PM PM    PM PM PM    PM PM PM    PM PM PM        
--------------------------------------------------|
--------------------------------------------------|
--------------------------------------------------|
--------------------------------------------------|
--0--0--0-----0--0--0-----0--0--0-----0--0--0-----|
--0--0--0-----0--0--0-----0--0--0-----0--0--0-----|




  PM PM PM PM PM PM PM PM           Chorus:                         
-----------------------------------|-----------------------|
-----------------------------------|-----------------------|
-----------------------------------|-----------------------|
-----------------------------7-----|-----------------------|
--0--0--0--0--0--0--0--0--------8--|-----------------------|
--0--0--0--0--0--0--0--0--7--------|--0--0-----------0--0--|


--------------------------|-----------------------|--------------------------|
--------------------------|-----------------------|--------------------------|
--------------------------|-----------------------|--------------------------|
--------------------------|-----------------------|--------------------------|
--------------------------|-----------------------|--------------------------|
-----0--0--0-----0-----0--|--8--8-----------8--8--|-----8--8--8-----8-----8--|

   
-----------------------|--------------------------|-----------------------|
-----------------------|--------------------------|-----------------------|
-----------------------|--------------------------|-----------------------|
-----------------------|--------------------------|-----------------------|
-----------------------|--------------------------|-----------------------|
--5--5-----------5--5--|-----5--5--5-----5-----5--|--8--8-----------8--8--|




                           Outro:                        
--------------------------|---------------|---------------|
--------------------------|---------------|---------------|
--------------------------|---------------|---------------|
--------------------------|---------------|---------------|
--------------------------|---------------|---------------|
-----8--8--8-----8-----8--|---------------|---------------|

   
--------------------------|--------------------------|
--------------------------|--------------------------|
--------------------------|--------------------------|
--------------------------|--------------------------|
--0--0--0--0--0--0--0--0--|--0--0--0--0--0--0--0--0--|
--0--0--0--0--0--0--0--0--|--0--0--0--0--0--0--0--0--|


----------------------------------|----------------------------------|
----------------------------------|----------------------------------|
----------------------------------|----------------------------------|
----------------------------------|----------------------------------|
--10--10--10--10--10--10--10--10--|--10--10--10--10--10--10--10--10--|
--10--10--10--10--10--10--10--10--|--10--10--10--10--10--10--10--10--|


----------------------------------|----------------------------------|
----------------------------------|----------------------------------|
----------------------------------|----------------------------------|
----------------------------------|----------------------------------|
--12--12--12--12--12--12--12--12--|--12--12--12--12--12--12--12--12--|
--12--12--12--12--12--12--12--12--|--12--12--12--12--12--12--12--12--|


----------------------------------|----------------------------------|-----||
----------------------------------|----------------------------------|-----||
----------------------------------|----------------------------------|-----||
----------------------------------|----------------------------------|-----||
--10--10--10--10--10--10--10--10--|--10--10--10--10--10--10--10--10--|-----||
--10--10--10--10--10--10--10--10--|--10--10--10--10--10--10--10--10--|-----||


Tablature Legend
----------------
PM - palm mute
L - tied note
x - dead note
 (n) - ghost note
PH - pitch harmonic
h - hammer on
p - pull off
b - bend
br - bendRelease
pb - preBend

comments
We did not receive enough feedback on this tab! Please rate:
1 2 3 4 5
1 comment total.
0 reply
AlphaMaleAndrew wrote on January 23 2013, 02:25 pm

pretty good tab bro

I want to post or [tab]
guest
You may want to rate the tab now too:
select rating
Please do not post tabs as comments. Select "correction" instead!