Oops, an error
Loading. Please wait.

Neighbors Tab

ver1
ver1

Whole song

Interactive

More versions @911Tabs.com
1,322 views 3 this week
2 commentsread comments
1 2 3 4 5
accurate
x 2
Autoscroll
+/-
esc
set tempo
stop
Contributor
Tuning
A# F A# D# G C
Hey! There's an official Ultimate Guitar app which is ideal
for learning songs when you're away from computer. Get the app
WARNING: You are trying to view
                                    content from Ultimate-Guitar.com
                                    in an unauthorized application,
                                    which is prohibited.

                                    Please use an official Ultimate
                                    Guitar Tabs application for iPhone,
                                    iPad or Android to access legitimate
                                    chords, guitar, bass, and drum tabs
                                    from Ultimate-Guitar.com database.

                                    Type "ultimate guitar tabs" in Apple
                                    App Store's or Android Market's
                                    search to find the application.
Song: Neighbors
Artist: The Plot In You
Album: First Born
Year: 2011
Tuning: Drop A#


GUITAR 1
C ||--------------------------|--------------------------|
G ||--------------------------|--------------------------|
D#||--7--7--7--7--7--7--7--7--|--8--8--8--8--3--3--3--3--|
A#||--x--x--x--x--x--x--x--x--|--x--x--x--x--x--x--x--x--|
F ||--5--5--5--5--5--5--5--5--|--6--6--6--6--1--1--1--1--|
A#||--------------------------|--------------------------|


--------------------------|------------------------------|
--------------------------|------------------------------|
--7--7--7--7--7--7--7--7--|--8--8--8--8--11--11--11--11--|
--x--x--x--x--x--x--x--x--|--x--x--x--x---x---x---x---x--|
--5--5--5--5--5--5--5--5--|--6--6--6--6---9---9---9---9--|
--------------------------|------------------------------|


--------------------------|--------------------------|
--------------------------|--------------------------|
--7--7--7--7--7--7--7--7--|--8--8--8--8--3--3--3--3--|
--x--x--x--x--x--x--x--x--|--x--x--x--x--x--x--x--x--|
--5--5--5--5--5--5--5--5--|--6--6--6--6--1--1--1--1--|
--------------------------|--------------------------|


--------------------------|------------------------------|
--------------------------|------------------------------|
--7--7--7--7--7--7--7--7--|--8--8--8--8--11--11--11--11--|
--x--x--x--x--x--x--x--x--|--x--x--x--x---x---x---x---x--|
--5--5--5--5--5--5--5--5--|--6--6--6--6---9---9---9---9--|
--------------------------|------------------------------|


--------------11--------------|-------------11----------------|
--10--11--10--------11----10--|-----11--10--------11--10--11--|
------------------------------|-------------------------------|
------------------------------|-------------------------------|
------------------------------|-------------------------------|
------------------------------|-------------------------------|


--------------11--------------|-------------11----------------|
--10--11--10--------11----10--|-----11--10--------11--10--11--|
------------------------------|-------------------------------|
------------------------------|-------------------------------|
------------------------------|-------------------------------|
------------------------------|-------------------------------|



        [0:25]
                          PM PM       PM PM       PM PM  
-------------------|------------------------------------|
-------------------|------------------------------------|
-------------------|------------------------------------|
-------------------|------------------------------------|
-------------------|------------------------------------|
-------------------|--2b--0--0--0--0--0--0--0--0--0--0--|


      PM PM     PM PM       PM PM           PM PM       PM PM       PM PM  
-------------------------------------|------------------------------------|
-------------------------------------|------------------------------------|
-------------------------------------|------------------------------------|
-------------------------------------|------------------------------------|
-------------------------------------|------------------------------------|
--2b--0--0--2b--0--0--0--0--0--0--0--|--2b--0--0--0--0--0--0--0--0--0--0--|


        PM PM       PM PM                                   
--------------------------------|--------------------------|
--------------------------------|--------------------------|
--------------------------------|--------------------------|
--------------------------------|--------------------1-----|
--------------------------------|-----------------5-----5--|
--0--0--0--0--0--0--0--0--0--0--|--6--0--0--3--0-----------|


--------------------------|--------------------------|
--------------------------|--------------------------|
--------------------------|--------------------------|
--------------------1-----|--------------------1-----|
-----------------5-----5--|-----------------5-----5--|
--6--0--0--3--0-----------|--6--0--0--3--0-----------|



        [0:42]
                             PM PM             PM     
--------------------------|--------------------------|
--------------------------|--------------------------|
--------------------------|--------------------------|
--------------------1-----|--------------------------|
-----------------5-----5--|--------------5--------5--|
--6--0--0--3--0-----------|--0--0--3--1-----1--0-----|


        PM    PM             PM PM             PM     
--------------------------|--------------------------|
--------------------------|--------------------------|
--------------------------|--------------------------|
-----7--------------------|--------------------------|
--6-----------------------|--------------5--------5--|
--------0--1--0--1--3--1--|--0--0--3--1-----1--0-----|


        PM    PM                                              
--------------------------|----------------------------------|
--------------------------|----------------------------------|
--------------------------|----------------------------------|
-----7--------------------|----------------------------------|
--6-----------------------|----------------------------------|
--------0--1--0--1--3--1--|--0-0-0-0-0-0-0-0-0-0-0-0-0-0-0-0-|


--------------------------------------------------|
--------------------------------------------------|
--------------------------------------------------|
--------------------------------------------------|
--------------------------------------------------|
--13-13-13-13-13-13-13-13-12-12-12-12-12-12-12-12-|


----------------------------------|----------------------------------|
----------------------------------|----------------------------------|
----------------------------------|----------------------------------|
----------------------------------|----------------------------------|
----------------------------------|----------------------------------|
--0-0-0-0-0-0-0-0-0-0-0-0-0-0-0-0-|--5-5-5-5-5-5-5-5-8-8-8-8-8-8-8-8-|



[0:57]
-----------8--------8-----|--8--------8--------8-----|
-----6-----------6--------|-----6--------6--------6--|
--7-----7-----7--------7--|--------7--------7--------|
--------------------------|--------------------------|
--------------------------|--------------------------|
--------------------------|--------------------------|


-----------8--------8-----|--8--------8--------8-----|
-----6-----------6--------|-----6--------6--------6--|
--7-----7-----7--------7--|--------7--------7--------|
--------------------------|--------------------------|
--------------------------|--------------------------|
--------------------------|--------------------------|


-----------8--------8-----|--8--------8--------8-----|
-----6-----------6--------|-----6--------6--------6--|
--7-----7-----7--------7--|--------7--------7--------|
--------------------------|--------------------------|
--------------------------|--------------------------|
--------------------------|--------------------------|



        [1:13]
-----------8--------8-----|--8--------8--------8-----|-------------------|
-----6-----------6--------|-----6--------6--------6--|-------------------|
--7-----7-----7--------7--|--------7--------7--------|-------------------|
--------------------------|--------------------------|-------------------|
--------------------------|--------------------------|-------------------|
--------------------------|--------------------------|-------------------|


  PM PM     PM PM PM PM PM        PM PM        PM PM PM PM PM PM PM PM  
-------------------------------|---------------------------------------|
-------------------------------|---------------------------------------|
-------------------------------|---------------------------------------|
-------------------------------|---------------------------------------|
--0--0------0--0--0--0--0------|--0--0--/5--5--0--0--0--0--0--0--0--0--|
--0--0------0--0--0--0--0------|--1--1---------1--1--1--1--1--1--1--1--|


  PM PM        PM PM PM PM PM        PM PM        PM PM PM PM PM PM PM PM  
----------------------------------|---------------------------------------|
----------------------------------|---------------------------------------|
----------------------------------|---------------------------------------|
----------------------------------|---------------------------------------|
--0--0--/5--5--0--0--0--0--0------|--0--0--/5--5--0--0--0--0--0--0--0--0--|
--1--1---------1--1--1--1--1------|--1--1---------1--1--1--1--1--1--1--1--|


  PM PM        PM PM PM PM PM                          
----------------------------------|-------------------|
----------------------------------|-------------------|
----------------------------------|-------------------|
----------------------------------|-------------------|
--0--0--/5--5--0--0--0--0--0------|-------------------|
--1--1---------1--1--1--1--1------|-------------------|



[1:27]
  PM PM PM PM PM PM PM                PM PM   PM PM PM PM PM     
------------------------------|---------------------------------|
------------------------------|---------------------------------|
------------------------------|---------------------------------|
------------------------------|---------------------------------|
--0--0--0--0--0--0--0---------|-------0--0----0--0--0--0--0-----|
--1--1--1--1--1--1--1---------|-------1--1----1--1--1--1--1-----|


  PM PM PM PM PM PM PM PM PM PM            PM PM   PM PM PM PM PM PM PM  
-----------------------------------|------------------------------------|
-----------------------------------|------------------------------------|
-----------------------------------|------------------------------------|
-----------------------------------|------------------------------------|
--0--0--0--0--0--0--0--0--0--0-----|-------0--0----0--0--0--0--0--0--0--|
--1--1--1--1--1--1--1--1--1--1-----|-------1--1----1--1--1--1--1--1--1--|


           PM PM PM PM                PM PM PM PM PM PM  
--------------------------|-----------------------------|
--------------------------|-----------------------------|
--------------------------|-----------------------------|
--------------------------|-----------------------------|
-----------0--0--0--0-----|-----------0--0--0--0--0--0--|
-----------1--1--1--1-----|-----------1--1--1--1--1--1--|


  PM        PM PM PM PM                PM PM PM PM PM PM                      
---------------------------|-----------------------------|-------------------|
---------------------------|-----------------------------|-------------------|
---------------------------|-----------------------------|-------------------|
---------------------------|-----------------------------|-------------------|
--0---------0--0--0--0-----|-----------0--0--0--0--0--0--|--0----------------|
--1---------1--1--1--1-----|-----------1--1--1--1--1--1--|--0----------------|



[1:46]
--17--------------------|-------------------|------------------10----|
----------15------------|-------------------|----------13------------|
------------------17----|-------------------|--10--------------------|
------------------------|-------------------|------------------------|
------------------------|-------------------|------------------------|
------------------------|-------------------|------------------------|


-------------10----------|--17--------------------|-------------------|
-----13------------13----|----------15------------|-------------------|
-------------------------|------------------17----|-------------------|
-------------------------|------------------------|-------------------|
-------------------------|------------------------|-------------------|
-------------------------|------------------------|-------------------|


                                                        PM PM PM    PM PM     
------------------10----|-------------10----------|--------------------------|
----------13------------|-----13------------13----|--------------------------|
--10--------------------|-------------------------|--------------------------|
------------------------|-------------------------|--------------------------|
------------------------|-------------------------|--0--0--0--0--0--0--0--0--|
------------------------|-------------------------|--0--0--0--0--0--0--0--0--|


  PM PM    PM PM    PM PM       PM PM PM    PM PM     
--------------------------|--------------------------|
--------------------------|--------------------------|
--------------------------|--------------------------|
--------------------------|--------------------------|
--0--0--0--0--0--0--0--0--|--8--8--8--8--8--8--8--8--|
--0--0--0--0--0--0--0--0--|--8--8--8--8--8--8--8--8--|


  PM  PM      PM  PM      PM  PM       PM PM PM    PM PM     
---------------------------------|--------------------------|
---------------------------------|--------------------------|
---------------------------------|--------------------------|
---------------------------------|--------------------------|
--8--10--10--10--10--10--10--10--|--0--0--0--0--0--0--0--0--|
--8--10--10--10--10--10--10--10--|--0--0--0--0--0--0--0--0--|


  PM PM    PM PM    PM PM       PM PM PM    PM PM     
--------------------------|--------------------------|
--------------------------|--------------------------|
--------------------------|--------------------------|
--------------------------|--------------------------|
--0--0--0--0--0--0--0--0--|--8--8--8--8--8--8--8--8--|
--0--0--0--0--0--0--0--0--|--8--8--8--8--8--8--8--8--|



        [2:18]
  PM  PM      PM                                      PM   PM   PM    
---------------------------------|-----|-----------------------------|
---------------------------------|-----|-----------------------------|
---------------------------------|-----|-----------------------------|
---------------------------------|-----|-----------------------------|
--8--10--10--10--10--10--10--10--|-----|--------------0----0----0----|
--8--10--10--10--10--10--10--10--|-----|--------------0----0----0----|


  PM                                PM PM       PM PM       PM PM  
-----------------------|-----|------------------------------------|
-----------------------|-----|------------------------------------|
-----------------------|-----|------------------------------------|
-----------------------|-----|------------------------------------|
--0--------------------|-----|------------------------------------|
--0--------------------|-----|--2b--0--0--0--0--0--0--0--0--0--0--|


      PM PM     PM PM       PM PM           PM PM       PM PM       PM PM  
-------------------------------------|------------------------------------|
-------------------------------------|------------------------------------|
-------------------------------------|------------------------------------|
-------------------------------------|------------------------------------|
-------------------------------------|------------------------------------|
--2b--0--0--2b--0--0--0--0--0--0--0--|--2b--0--0--0--0--0--0--0--0--0--0--|


        PM PM       PM PM                                     
--------------------------------|----------------------------|
--------------------------------|----------------------------|
--------------------------------|----------------------------|
--------------------------------|----------------------------|
--------------------------------|----------------------------|
--0--0--0--0--0--0--0--0--0--0--|--2b----2b----0--0-0-0-0----|


  PM PM                   PM PM PM PM                               
--------------------------------------|----------------------------|
--------------------------------------|----------------------------|
--------------------------------------|----------------------------|
--------------------------------------|----------------------------|
--------------------------------------|----------------------------|
--0--0--2b--0--0-0-2b--0--0--0--0--0--|--2b----2b----0--0-0-0-0----|


  PM PM                   PM PM PM PM                                     
--------------------------------------|----------------------------------|
--------------------------------------|----------------------------------|
--------------------------------------|----------------------------------|
--------------------------------------|----------------------------------|
--------------------------------------|----------------------------------|
--0--0--2b--0--0-0-2b--0--0--0--0--0--|--0-0-0-0-0-0-0-0-0-0-0-0-0-0-0-0-|


--------------------------------------------------|
--------------------------------------------------|
--------------------------------------------------|
--------------------------------------------------|
--------------------------------------------------|
--13-13-13-13-13-13-13-13-12-12-12-12-12-12-12-12-|


----------------------------------|----------------------------------|----|
----------------------------------|----------------------------------|----|
----------------------------------|----------------------------------|----|
----------------------------------|----------------------------------|----|
----------------------------------|----------------------------------|----|
--0-0-0-0-0-0-0-0-0-0-0-0-0-0-0-0-|--5-5-5-5-5-5-5-5-8-8-8-8-8-8-8-8-|----|



[2:54]
        PM PM PM PM PM PM PM PM PM    PM PM PM PM PM PM PM PM PM PM PM     
-----|-----------------------------|-----------------------------------|
-----|-----------------------------|-----------------------------------|
-----|-----------------------------|-----------------------------------|
-----|-----------------------------|-----------------------------------|
-----|--0--0--0--0--0--0--0--0--0--|--0--0--0--0--0--0--0--0--0--0--0--|
-----|--1--1--1--1--1--1--1--1--1--|--1--1--1--1--1--1--1--1--1--1--1--|


  PM PM PM PM PM PM PM PM PM    PM PM PM PM PM PM PM PM PM PM PM PM PM PM  
-----------------------------|--------------------------------------------|
-----------------------------|--------------------------------------------|
-----------------------------|--------------------------------------------|
-----------------------------|--------------------------------------------|
--0--0--0--0--0--0--0--0--0--|--0--0--0--0--0--0--0--0--0--0--0--0--0--0--|
--1--1--1--1--1--1--1--1--1--|--1--1--1--1--1--1--1--1--1--1--1--1--1--1--|

      
------------|----------------------|-----------------------|
------------|--11--------10--------|--6----8----3-----S----|
------------|----------------------|-----------------------|
------------|----------------------|-----------------------|
--0---------|----------------------|-----------------------|
--0---------|----------------------|-----------------------|


                                                   PM PM PM PM PM PM           
----------------------|--12~--------------------|-----------------------------|
--11--------10--------|-------------------------|-----------------------------|
----------------------|-------------------------|-----------------------------|
----------------------|-------------------------|-----------------------------|
----------------------|-------------0-----------|--0--0--0--0--0--0-----------|
----------------------|-------------0-----2b----|--0--0--0--0--0--0-----------|


  PM PM PM PM PM PM PM    PM       PM PM PM PM              
--------------------------------|--------------------------|
--------------------------------|--------------------------|
--------------------------------|--------------------------|
--------------------------------|--------------------------|
--0--0--0--0--0--0--0-----0-----|--0--0--0--0--------------|
--0--0--0--0--0--0--0-----0-----|--0--0--0--0--------------|


  PM PM PM PM PM PM                         
------------------------------||
------------------------------||
------------------------------||
------------------------------||
--0--0--0--0--0--0------------||
--0--0--0--0--0--0------------||



GUITAR 2



        [0:07]
C ||-------|-------|-------|-------|----------------------------------|
G ||-------|-------|-------|-------|----------------------------------|
D#||-------|-------|-------|-------|--14--14--14--14--14--14--14--14--|
A#||-------|-------|-------|-------|---x---x---x---x---x---x---x---x--|
F ||-------|-------|-------|-------|--12--12--12--12--12--12--12--12--|
A#||-------|-------|-------|-------|----------------------------------|


----------------------------------|----------------------------------|
----------------------------------|----------------------------------|
--15--15--15--15--10--10--10--10--|--14--14--14--14--14--14--14--14--|
---x---x---x---x---x---x---x---x--|---x---x---x---x---x---x---x---x--|
--13--13--13--13---8---8---8---8--|--12--12--12--12--12--12--12--12--|
----------------------------------|----------------------------------|


----------------------------------|--------------------------|
----------------------------------|--------------------------|
--15--15--15--15--17--17--17--17--|--7--7--7--7--7--7--7--7--|
---x---x---x---x---x---x---x---x--|--x--x--x--x--x--x--x--x--|
--13--13--13--13--15--15--15--15--|--5--5--5--5--5--5--5--5--|
----------------------------------|--------------------------|


--------------------------|--------------------------|
--------------------------|--------------------------|
--8--8--8--8--3--3--3--3--|--7--7--7--7--7--7--7--7--|
--x--x--x--x--x--x--x--x--|--x--x--x--x--x--x--x--x--|
--6--6--6--6--1--1--1--1--|--5--5--5--5--5--5--5--5--|
--------------------------|--------------------------|


------------------------------|-------------------|
------------------------------|-------------------|
--8--8--8--8--11--11--11--11--|-------------------|
--x--x--x--x---x---x---x---x--|-------------------|
--6--6--6--6---9---9---9---9--|-------------------|
------------------------------|-------------------|



[0:25]
      PM PM       PM PM       PM PM        PM PM     PM PM       PM PM     
------------------------------------|-------------------------------------|
------------------------------------|-------------------------------------|
------------------------------------|-------------------------------------|
------------------------------------|-------------------------------------|
------------------------------------|-------------------------------------|
--2b--0--0--0--0--0--0--0--0--0--0--|--2b--0--0--2b--0--0--0--0--0--0--0--|


      PM PM       PM PM       PM PM          PM PM       PM PM        
------------------------------------|--------------------------------|
------------------------------------|--------------------------------|
------------------------------------|--------------------------------|
------------------------------------|--------------------------------|
------------------------------------|--------------------------------|
--2b--0--0--0--0--0--0--0--0--0--0--|--0--0--0--0--0--0--0--0--0--0--|


--------------------------|--------------------------|
--------------------------|--------------------------|
--------------------------|--------------------------|
--------------------1-----|--------------------1-----|
-----------------5-----5--|-----------------5-----5--|
--6--0--0--3--0-----------|--6--0--0--3--0-----------|


--------------------------|--------------------------|
--------------------------|--------------------------|
--------------------------|--------------------------|
--------------------1-----|--------------------1-----|
-----------------5-----5--|-----------------5-----5--|
--6--0--0--3--0-----------|--6--0--0--3--0-----------|



[0:42]
  PM PM             PM              PM    PM           
--------------------------|---------------------------|
--------------------------|---------------------------|
--------------------------|---------------------------|
--------------------------|-----12--------------------|
--------------5--------5--|--6------------------------|
--0--0--3--1-----1--0-----|---------0--1--0--1--3--1--|


  PM PM             PM              PM    PM           
--------------------------|---------------------------|
--------------------------|---------------------------|
--------------------------|---------------------------|
--------------------------|-----12--------------------|
--------------5--------5--|--6------------------------|
--0--0--3--1-----1--0-----|---------0--1--0--1--3--1--|


----------------------------------|
----------------------------------|
----------------------------------|
----------------------------------|
----------------------------------|
--0-0-0-0-0-0-0-0-0-0-0-0-0-0-0-0-|


--------------------------------------------------|
--------------------------------------------------|
--------------------------------------------------|
--------------------------------------------------|
--------------------------------------------------|
--13-13-13-13-13-13-13-13-12-12-12-12-12-12-12-12-|


----------------------------------|----------------------------------|
----------------------------------|----------------------------------|
----------------------------------|----------------------------------|
----------------------------------|----------------------------------|
----------------------------------|----------------------------------|
--0-0-0-0-0-0-0-0-0-0-0-0-0-0-0-0-|--5-5-5-5-5-5-5-5-8-8-8-8-8-8-8-8-|



[0:58]
----------------------------------|----------------------------------|
----------------------------------|----------------------------------|
----------------------------------|----------------------------------|
----------------------------------|----------------------------------|
----------------------------------|----------------------------------|
--0-0-0-0-0-0-0-0-0-0-0-0-0-0-0-0-|--8-8-8-8-8-8-8-8-5-5-5-5-7-7-7-7-|


----------------------------------|------------------------------------------|
----------------------------------|------------------------------------------|
----------------------------------|------------------------------------------|
----------------------------------|------------------------------------------|
----------------------------------|------------------------------------------|
--0-0-0-0-0-0-0-0-0-0-0-0-0-0-0-0-|--10-10-10-10-10-10-10-10-5-5-5-5-7-7-7-7-|


----------------------------------|----------------------------------|
----------------------------------|----------------------------------|
----------------------------------|----------------------------------|
----------------------------------|----------------------------------|
----------------------------------|----------------------------------|
--0-0-0-0-0-0-0-0-0-0-0-0-0-0-0-0-|--8-8-8-8-8-8-8-8-5-5-5-5-7-7-7-7-|


----------------------------------|------------------------------------------|
----------------------------------|------------------------------------------|
----------------------------------|------------------------------------------|
----------------------------------|------------------------------------------|
----------------------------------|------------------------------------------|
--0-0-0-0-0-0-0-0-0-0-0-0-0-0-0-0-|--10-10-10-10-10-10-10-10-5-5-5-5-7-7-7-7-|



[1:13]
  PM PM     PM PM PM PM PM PM PM PM          
------------------------------------|-------|
------------------------------------|-------|
------------------------------------|-------|
------------------------------------|-------|
--0--0------0--0--0--0--0--0--0--0--|-------|
--0--0------0--0--0--0--0--0--0--0--|-------|


  PM PM        PM PM PM PM PM PM PM PM    PM PM        PM PM PM PM PM      
---------------------------------------|----------------------------------|
---------------------------------------|----------------------------------|
---------------------------------------|----------------------------------|
---------------------------------------|----------------------------------|
--0--0--/5--5--0--0--0--0--0--0--0--0--|--0--0--/5--5--0--0--0--0--0------|
--1--1---------1--1--1--1--1--1--1--1--|--1--1---------1--1--1--1--1------|


  PM PM        PM PM PM PM PM PM PM PM    PM PM        PM PM PM PM PM      
---------------------------------------|----------------------------------|
---------------------------------------|----------------------------------|
---------------------------------------|----------------------------------|
---------------------------------------|----------------------------------|
--0--0--/5--5--0--0--0--0--0--0--0--0--|--0--0--/5--5--0--0--0--0--0------|
--1--1---------1--1--1--1--1--1--1--1--|--1--1---------1--1--1--1--1------|



        [1:27]
                      PM PM PM PM PM PM PM         
-------------------|------------------------------|
-------------------|------------------------------|
-------------------|------------------------------|
-------------------|------------------------------|
-------------------|--0--0--0--0--0--0--0---------|
-------------------|--1--1--1--1--1--1--1---------|


       PM PM   PM PM PM PM PM       PM PM PM PM PM PM PM PM PM PM     
---------------------------------|-----------------------------------|
---------------------------------|-----------------------------------|
---------------------------------|-----------------------------------|
---------------------------------|-----------------------------------|
-------0--0----0--0--0--0--0-----|--0--0--0--0--0--0--0--0--0--0-----|
-------1--1----1--1--1--1--1-----|--1--1--1--1--1--1--1--1--1--1-----|


       PM PM   PM PM PM PM PM PM PM             PM PM PM PM     
------------------------------------|--------------------------|
------------------------------------|--------------------------|
------------------------------------|--------------------------|
------------------------------------|--------------------------|
-------0--0----0--0--0--0--0--0--0--|-----------0--0--0--0-----|
-------1--1----1--1--1--1--1--1--1--|-----------1--1--1--1-----|


           PM PM PM PM PM PM    PM        PM PM PM PM     
-----------------------------|---------------------------|
-----------------------------|---------------------------|
-----------------------------|---------------------------|
-----------------------------|---------------------------|
-----------0--0--0--0--0--0--|--0---------0--0--0--0-----|
-----------1--1--1--1--1--1--|--1---------1--1--1--1-----|



        [1:46]
           PM PM PM PM PM PM                                              
-----------------------------|-------------------|-----------------------|
-----------------------------|-------------------|--13-------------------|
-----------------------------|-------------------|----------10------9----|
-----------------------------|-------------------|-----------------------|
-----------0--0--0--0--0--0--|--0----------------|-----------------------|
-----------1--1--1--1--1--1--|--0----------------|-----------------------|


-------------------|----------------------|----------------------|
-------------------|----------------------|----------------------|
-------------------|---------9------10----|-----9-----------9----|
-------------------|--7-------------------|------------7---------|
-------------------|----------------------|----------------------|
-------------------|----------------------|----------------------|


-----------------------|-------------------|----------------------|
--13-------------------|-------------------|----------------------|
----------10------9----|-------------------|---------9------10----|
-----------------------|-------------------|--7-------------------|
-----------------------|-------------------|----------------------|
-----------------------|-------------------|----------------------|



        [2:02]
----------------------|--8----------8----------8------|
----------------------|-----10---------10---------10--|
-----9-----------9----|---------10---------10---------|
------------7---------|-------------------------------|
----------------------|-------------------------------|
----------------------|-------------------------------|


------8----------8--------------|--------------------------|
---------10---------10------10--|--------------6-----------|
--10---------10---------10------|-----5-----5-----5-----5--|
--------------------------------|--7-----7-----------7-----|
--------------------------------|--------------------------|
--------------------------------|--------------------------|


--------------------------|--8----------8----------8------|
--------------6-----------|-----10---------10---------10--|
-----5-----5-----5-----5--|---------10---------10---------|
--7-----7-----------7-----|-------------------------------|
--------------------------|-------------------------------|
--------------------------|-------------------------------|


------8----------8--------------|--------------------------|
---------10---------10------10--|--------------6-----------|
--10---------10---------10------|-----5-----5-----5-----5--|
--------------------------------|--7-----7-----------7-----|
--------------------------------|--------------------------|
--------------------------------|--------------------------|



        [2:18]
                                 PM PM       PM PM           
--------------------------|---------------------------------|
--------------6-----------|---------------------------------|
-----5-----5-----5-----5--|---------------------------------|
--7-----7-----------7-----|---------------------------------|
--------------------------|---------------------------------|
--------------------------|--2b--0--0--0--0--0--0--0--0-----|


      PM PM       PM PM                 PM PM       PM PM              
---------------------------------|---------------------------------|
---------------------------------|---------------------------------|
---------------------------------|---------------------------------|
---------------------------------|---------------------------------|
---------------------------------|---------------------------------|
--2b--0--0--0--0--0--0--0--0--0--|--2b--0--0--0--0--0--0--0--0-----|


      PM PM       PM PM                 PM PM       PM PM       PM PM     
---------------------------------|------------------------------------|
---------------------------------|------------------------------------|
---------------------------------|------------------------------------|
---------------------------------|------------------------------------|
---------------------------------|------------------------------------|
--2b--0--0--0--0--0--0--0--0-----|--2b--0--0--0--0--0--0--0--0--0--0--|


      PM PM     PM PM       PM PM           PM PM       PM PM       PM PM  
-------------------------------------|------------------------------------|
-------------------------------------|------------------------------------|
-------------------------------------|------------------------------------|
-------------------------------------|------------------------------------|
-------------------------------------|------------------------------------|
--2b--0--0--2b--0--0--0--0--0--0--0--|--2b--0--0--0--0--0--0--0--0--0--0--|


        PM PM       PM PM                                     
--------------------------------|----------------------------|
--------------------------------|----------------------------|
--------------------------------|----------------------------|
--------------------------------|----------------------------|
--------------------------------|----------------------------|
--0--0--0--0--0--0--0--0--0--0--|--2b----2b----0--0-0-0-0----|


  PM PM                   PM PM PM PM                               
--------------------------------------|----------------------------|
--------------------------------------|----------------------------|
--------------------------------------|----------------------------|
--------------------------------------|----------------------------|
--------------------------------------|----------------------------|
--0--0--2b--0--0-0-2b--0--0--0--0--0--|--2b----2b----0--0-0-0-0----|


  PM PM                   PM PM PM PM                                     
--------------------------------------|----------------------------------|
--------------------------------------|----------------------------------|
--------------------------------------|----------------------------------|
--------------------------------------|----------------------------------|
--------------------------------------|----------------------------------|
--0--0--2b--0--0-0-2b--0--0--0--0--0--|--0-0-0-0-0-0-0-0-0-0-0-0-0-0-0-0-|


--------------------------------------------------|
--------------------------------------------------|
--------------------------------------------------|
--------------------------------------------------|
--------------------------------------------------|
--13-13-13-13-13-13-13-13-12-12-12-12-12-12-12-12-|


----------------------------------|----------------------------------|
----------------------------------|----------------------------------|
----------------------------------|----------------------------------|
----------------------------------|----------------------------------|
----------------------------------|----------------------------------|
--0-0-0-0-0-0-0-0-0-0-0-0-0-0-0-0-|--5-5-5-5-5-5-5-5-8-8-8-8-8-8-8-8-|



[2:49]
  PM PM PM PM PM PM PM PM          PM PM PM PM PM PM PM PM PM  
--------------------------|-----|-----------------------------|
--------------------------|-----|-----------------------------|
--------------------------|-----|-----------------------------|
--------------------------|-----|-----------------------------|
--0--0--0--0--0--0--0--0--|-----|--0--0--0--0--0--0--0--0--0--|
--1--1--1--1--1--1--1--1--|-----|--1--1--1--1--1--1--1--1--1--|


  PM PM PM PM PM PM PM PM PM PM PM    PM PM PM PM PM PM PM PM PM  
-----------------------------------|-----------------------------|
-----------------------------------|-----------------------------|
-----------------------------------|-----------------------------|
-----------------------------------|-----------------------------|
--0--0--0--0--0--0--0--0--0--0--0--|--0--0--0--0--0--0--0--0--0--|
--1--1--1--1--1--1--1--1--1--1--1--|--1--1--1--1--1--1--1--1--1--|


  PM PM PM PM PM PM PM PM PM PM PM PM PM PM                
--------------------------------------------|-------------|
--------------------------------------------|-------------|
--------------------------------------------|-------------|
--------------------------------------------|-------------|
--0--0--0--0--0--0--0--0--0--0--0--0--0--0--|-------------|
--1--1--1--1--1--1--1--1--1--1--1--1--1--1--|-------2b----|



[3:02]
  PM PM PM PM PM PM PM           PM PM PM PM PM PM PM    PM     
------------------------------|--------------------------------|
------------------------------|--------------------------------|
------------------------------|--------------------------------|
------------------------------|--------------------------------|
--0--0--0--0--0--0--0---------|--0--0--0--0--0--0--0-----0-----|
--0--0--0--0--0--0--0---------|--0--0--0--0--0--0--0-----0-----|


  PM PM PM PM                PM PM PM PM PM PM PM         
--------------------------|------------------------------|
--------------------------|------------------------------|
--------------------------|------------------------------|
--------------------------|------------------------------|
--0--0--0--0--------------|--0--0--0--0--0--0--0---------|
--0--0--0--0--------------|--0--0--0--0--0--0--0---------|


  PM PM PM PM PM PM             PM PM PM PM PM PM PM    PM     
-----------------------------|--------------------------------|
-----------------------------|--------------------------------|
-----------------------------|--------------------------------|
-----------------------------|--------------------------------|
--0--0--0--0--0--0-----------|--0--0--0--0--0--0--0-----0-----|
--0--0--0--0--0--0-----------|--0--0--0--0--0--0--0-----0-----|


  PM PM PM PM                PM PM PM PM PM PM                             
--------------------------|------------------------------||
--------------------------|------------------------------||
--------------------------|------------------------------||
--------------------------|------------------------------||
--0--0--0--0--------------|--0--0--0--0--0--0------------||
--0--0--0--0--------------|--0--0--0--0--0--0------------||



Tablature Legend
----------------
PM - palm mute
b - bend
L - tied note
x - dead note
g - grace note
(n) - ghost note
> - accentuded note
PH - pitch harmonic
h - hammer on
p - pull off
comments
We did not receive enough feedback on this tab! Please rate:
print report bad tab
1 2 3 4 5
2 comments total.
0 reply
minkar_man72 wrote on May 24 2012, 05:03 pm

not too bad. there are a few mistakes but nothing too hard to figure out from what you have here. if you go back and listen a little more carefully you could probably fix the mistakes.

+1 reply
scottismad wrote on May 25 2012, 04:29 am

If you could tell me where that would be great so i can update the tab for everyone to see

I want to post or [tab]
guest
You may want to rate the tab now too:
select rating
Please do not post tabs as comments. Select "correction" instead!