Oops, an error
Loading. Please wait.

Message In A Bottle Tab

ver5
ver5
More versions @911Tabs.com
19,168 views 3 this week
1 commentread comment
1 2 3 4 5
accurate
x 5
add to favorites launch autoscroll
font size
0
reset
Autoscroll
+/-
esc
set tempo
stop
Contributor
WARNING: You are trying to view
                                    content from Ultimate-Guitar.com
                                    in an unauthorized application,
                                    which is prohibited.

                                    Please use an official Ultimate
                                    Guitar Tabs application for iPhone,
                                    iPad or Android to access legitimate
                                    chords, guitar, bass, and drum tabs
                                    from Ultimate-Guitar.com database.

                                    Type "ultimate guitar tabs" in Apple
                                    App Store's or Android Market's
                                    search to find the application.
----------------------------------------------------------------------------
                             Message In A Bottle - The Police
----------------------------------------------------------------------------
Tabbed by: Fallen186
Email:volcom186@hotmail.com
Please Comment on it. Some of Guitar 3 Im not sure if its 100% correct. I didn't tab all of this.
Tabbed for 3 guitars
Tuning: Standard
Verse 1:
                                            x2
e||-----------------------------------------||
B||o---------------------------------------o||
G||---------8--------4--------6-------------||
D||------6--------2--------4-----------6/7--||
A||o--4--------0--------2-----------4------o||
E||-----------------------------2-----------||

                                            x8
e||-----------------------------------------||
B||o---------------------------------------o||
G||---------8--------4--------6-------------||
D||------6--------2--------4-----------6/7--||
A||o--4--------0--------2-----------4------o||
E||-----------------------------2-----------||
 |    
G||-----------------------------------------||
D||o---------------------------------------o||
A||o--4-4------0-0------2-2----------------o||
E||-----------------------------2-2---------||

Chorus 1a:
e|-----------------------------------------------------------------|
B|-----------------------------------------------------------------|
G|-----------------7-7-7-9-9-9-9-9-----------------7-7-7-9-9-9-9-9-|
D|-7-7-7-7-7-7-7-7-7-7-7-9-9-9-9-9-7-7-7-7-7-7-7-7-7-7-7-9-9-9-9-9-|
A|-7-7-7-7-7-7-7-7-5-5-5-7-7-7-7-7-7-7-7-7-7-7-7-7-5-5-5-7-7-7-7-7-|
E|-5-5-5-5-5-5-5-5-----------------5-5-5-5-5-5-5-5-----------------|
 | 
G|-----------------------------------------------------------------|
D|-----------------------------------------------------------------|
A|-----------------5-5-5-7-7-7-7-7-----------------5-5-5-7-7-7-7-7-|
E|-5-5-5-5-5-5-5-5-----------------5-5-5-5-5-5-5-5-----------------|

e|----------------------------------------------------------------------|
B|----------------------------------------------------------------------|
G|----------------------------------------------------------------------|
D|-4-4-4-4-4-4-4-4--7-7-7-7-7-7-7-7--4-4-4-4-4-4-4-4--7-7-7-7-7-7-7-7---|
A|-4-4-4-4-4-4-4-4--7-7-7-7-7-7-7-7--4-4-4-4-4-4-4-4--7-7-7-7-7-7-7-7---|
E|-2-2-2-2-2-2-2-2--5-5-5-5-5-5-5-5--2-2-2-2-2-2-2-2--5-5-5-5-5-5-5-5---|
 |
G|----------------------------------------------------------------------|
D|----------------------------------------------------------------------|
A|----------------7-----------------7---------------7-----------------7-|
E|-2-2-2-2-2-2-2-2--5-5-5-5-5-5-5-5--2-2-2-2-2-2-2-2--5-5-5-5-5-5-5-5---|

e|----------------------------|
B|----------------------------|
G|----------------------------|
D|-4-4-4-4-4-4-4-4--7-7-7-7-7-|
A|-4-4-4-4-4-4-4-4--7-7-7-7-7-|
E|-2-2-2-2-2-2-2-2--5-5-5-5-5-|
 |
G|----------------------------|
D|----------------------------|
A|----------------7-----------|
E|-2-2-2-2-2-2-2-2--5-5-5-5-5-|

Chorus 1b:
e|-4----------5-------4----------5-------4----------5----------|
B|-5----------5-------5----------5-------5----------5--------2-|
G|-6----------6-------6----------6-------6----------6--------2-|
D|-6----------4-------6----------4-------6----------4--------4-|
A|-4------------------4------------------4-------------------4-|
E|-----------------------------------------------------------2-|
 |
G|-------------------------------------------------------------|
D|-------------------------------------------------------------|
A|-4-4-4--4-----------4-4-4--4-----------4-4-4--4--------------|
E|------------5-5-5-4------------5-5-5-4------------5-5-5-4--2-|
 |
e|-------------------------------------------------------------|
B|---------------------------------------7b8---7--5---7b8------|
G|-----------------------------------------------------------6-|
D|-------------------------------------------------------------|
A|-------------------------------------------------------------|
E|-------------------------------------------------------------|

Verse 2:
                                            x2
e||-----------------------------------------||
B||o---------------------------------------o||
G||---------8--------4--------6-------------||
D||------6--------2--------4-----------6/7--||
A||o--4--------0--------2-----------4------o||
E||-----------------------------2-----------||

                                            x8
e||-----------------------------------------||
B||o---------------------------------------o||
G||---------8--------4--------6-------------||
D||------6--------2--------4-----------6/7--||
A||o--4--------0--------2-----------4------o||
E||-----------------------------2-----------||
 |    
G||-----------------------------------------||
D||o---------------------------------------o||
A||o--4-4------0-0------2-2----------------o||
E||-----------------------------2-2---------||

Chorus 2a:
e|-----------------------------------------------------------------|
B|-----------------------------------------------------------------|
G|-----------------7-7-7-9-9-9-9-9-----------------7-7-7-9-9-9-9-9-|
D|-7-7-7-7-7-7-7-7-7-7-7-9-9-9-9-9-7-7-7-7-7-7-7-7-7-7-7-9-9-9-9-9-|
A|-7-7-7-7-7-7-7-7-5-5-5-7-7-7-7-7-7-7-7-7-7-7-7-7-5-5-5-7-7-7-7-7-|
E|-5-5-5-5-5-5-5-5-----------------5-5-5-5-5-5-5-5-----------------|
 | 
G|-----------------------------------------------------------------|
D|-----------------------------------------------------------------|
A|-----------------5-5-5-7-7-7-7-7-----------------5-5-5-7-7-7-7-7-|
E|-5-5-5-5-5-5-5-5-----------------5-5-5-5-5-5-5-5-----------------|

e|----------------------------------------------------------------------|
B|----------------------------------------------------------------------|
G|----------------------------------------------------------------------|
D|-4-4-4-4-4-4-4-4--7-7-7-7-7-7-7-7--4-4-4-4-4-4-4-4--7-7-7-7-7-7-7-7---|
A|-4-4-4-4-4-4-4-4--7-7-7-7-7-7-7-7--4-4-4-4-4-4-4-4--7-7-7-7-7-7-7-7---|
E|-2-2-2-2-2-2-2-2--5-5-5-5-5-5-5-5--2-2-2-2-2-2-2-2--5-5-5-5-5-5-5-5---|
 |
G|----------------------------------------------------------------------|
D|----------------------------------------------------------------------|
A|----------------7-----------------7---------------7-----------------7-|
E|-2-2-2-2-2-2-2-2--5-5-5-5-5-5-5-5--2-2-2-2-2-2-2-2--5-5-5-5-5-5-5-5---|

e|----------------------------|
B|----------------------------|
G|----------------------------|
D|-4-4-4-4-4-4-4-4--7-7-7-7-7-|
A|-4-4-4-4-4-4-4-4--7-7-7-7-7-|
E|-2-2-2-2-2-2-2-2--5-5-5-5-5-|
 |
G|----------------------------|
D|----------------------------|
A|----------------7-----------|
E|-2-2-2-2-2-2-2-2--5-5-5-5-5-|

Chorus 2b:
e|-4----------5-------4----------5-------4----------5--------|
B|-5----------5-------5----------5-------5----------5--------|
G|-6----------6-------6----------6-------6----------6--------|
D|-6----------4-------6----------4-------6----------4--------|
A|-4------------------4------------------4-------------------|
E|-----------------------------------------------------------|
 |
G|-----------------------------------------------------------|
D|-----------------------------------------------------------|
A|-4-4-4--4-----------4-4-4--4-----------4-4-4--4------------|
E|------------5-5-5-4------------5-5-5-4------------5-5-5-4--|
 |
e|-----------------------------------------------------------|
B|---------------------------------------7b8---7--5---7b8--7-|
G|-----------------------------------------------------------|
D|-----------------------------------------------------------|
A|-----------------------------------------------------------|
E|-----------------------------------------------------------|


e|-4----------5-------4----------5-------4----------5-------|
B|-5----------5-------5----------5-------5----------5-------|
G|-6----------6-------6----------6-------6----------6-------|
D|-6----------4-------6----------4-------6----------4-------|
A|-4------------------4------------------4------------------|
E|----------------------------------------------------------|
 |
G|----------------------------------------------------------|
D|----------------------------------------------------------|
A|-4-4-4--4-----------4-4-4--4-----------4-4-4--4-----------|
E|------------5-5-5-4------------5-5-5-4------------5-5-5-4-|
 |
e|----------------------------------------------------------|
B|----------------------5-7-7b8-5--------------------------5|
G|--------------------6-----------6--------------------4h6--|
D|----------------------------------6\4--2----------4h6-----|
A|-------------------------------------------4--------------|
E|----------------------------------------------------------|


e|-4----------5-----------------2--------2-|
B|-5----------5-----------------2--------2-|
G|-6----------6-----------------2--------2-|
D|-6----------4-----------------4--------4-|
A|-4---------------------------------------|
E|-----------------------------------------|
 |
G|-----------------------------------------|
D|-----------------------------------------|
A|-4-4-4--4-----------4-4-4--4-------------|
E|------------5-5-5-4-----------2----------|
 |
e|-----------------------------------------|
B|------------9b10-------------------------|
G|-6----------11b12---9--------------------|
D|-----------------------11----------------|
A|-----------------------------------------|
E|-----------------------------------------|


e|-----------------------------------------|
B|-----------------------------------------|
G|-----------------------------------------|
D|-----------------------------------------|
A|-----------------------------------------|
E|-----------------------------------------|

Verse 3:
                                            x8
e||-----------------------------------------||
B||o---------------------------------------o||
G||---------8--------4--------6-------------||
D||------6--------2--------4-----------6/7--||
A||o--4--------0--------2-----------4------o||
E||-----------------------------2-----------||
 |    
G||-----------------------------------------||
D||o---------------------------------------o||
A||o--4-4------0-0------2-2----------------o||
E||-----------------------------2-2---------||

Chorus 3a:
e|-----------------------------------------------------------------|
B|-----------------------------------------------------------------|
G|-----------------7-7-7-9-9-9-9-9-----------------7-7-7-9-9-9-9-9-|
D|-7-7-7-7-7-7-7-7-7-7-7-9-9-9-9-9-7-7-7-7-7-7-7-7-7-7-7-9-9-9-9-9-|
A|-7-7-7-7-7-7-7-7-5-5-5-7-7-7-7-7-7-7-7-7-7-7-7-7-5-5-5-7-7-7-7-7-|
E|-5-5-5-5-5-5-5-5-----------------5-5-5-5-5-5-5-5-----------------|
 | 
G|-----------------------------------------------------------------|
D|-----------------------------------------------------------------|
A|-----------------5-5-5-7-7-7-7-7-----------------5-5-5-7-7-7-7-7-|
E|-5-5-5-5-5-5-5-5-----------------5-5-5-5-5-5-5-5-----------------|


e|----------------------------------------------------------------------|
B|----------------------------------------------------------------------|
G|----------------------------------------------------------------------|
D|-4-4-4-4-4-4-4-4--7-7-7-7-7-7-7-7--4-4-4-4-4-4-4-4--7-7-7-7-7-7-7-7---|
A|-4-4-4-4-4-4-4-4--7-7-7-7-7-7-7-7--4-4-4-4-4-4-4-4--7-7-7-7-7-7-7-7---|
E|-2-2-2-2-2-2-2-2--5-5-5-5-5-5-5-5--2-2-2-2-2-2-2-2--5-5-5-5-5-5-5-5---|
 |
G|----------------------------------------------------------------------|
D|----------------------------------------------------------------------|
A|----------------7-----------------7---------------7-----------------7-|
E|-2-2-2-2-2-2-2-2--5-5-5-5-5-5-5-5--2-2-2-2-2-2-2-2--5-5-5-5-5-5-5-5---|


e|----------------------------|
B|----------------------------|
G|----------------------------|
D|-4-4-4-4-4-4-4-4--7-7-7-7-7-|
A|-4-4-4-4-4-4-4-4--7-7-7-7-7-|
E|-2-2-2-2-2-2-2-2--5-5-5-5-5-|
 |
G|----------------------------|
D|----------------------------|
A|----------------7-----------|
E|-2-2-2-2-2-2-2-2--5-5-5-5-5-|

Chorus 3b:
e|-4----------5-------4----------5-------4----------5-------|
B|-5----------5-------5----------5-------5----------5-------|
G|-6----------6-------6----------6-------6----------6-------|
D|-6----------4-------6----------4-------6----------4-------|
A|-4------------------4------------------4------------------|
E|----------------------------------------------------------|
 |
G|----------------------------------------------------------|
D|----------------------------------------------------------|
A|-4-4-4--4-----------4-4-4--4-----------4-4-4--4-----------|
E|------------5-5-5-4------------5-5-5-4------------5-5-5-4-|
 |
e|-------------------------------------------------------------|
B|------------------------------------------------------------9|
G|-----------------------------------------------------8-9-11--|
D|---------------------------------------------------11--------|
A|-------------------------------------------------------------|
E|-------------------------------------------------------------|


e|-4------------5-----------4----------5-------4----------5-------|
B|-5------------5-----------5----------5-------5----------5-------|
G|-6------------6-----------6----------6-------6----------6-------|
D|-6------------4-----------6----------4-------6----------4-------|
A|-4------------------------4------------------4------------------|
E|----------------------------------------------------------------|
 |
G|----------------------------------------------------------------|
D|----------------------------------------------------------------|
A|-4-4-4--4-----------------4-4-4--4-----------4-4-4--4-----------|
E|--------------5-5-5-4----------------5-5-5-4------------5-5-5-4-|
 |
e|----------------------------------------------------------------|
B|-12-10-10-9---9b------------------------------------9-----------|
G|--------------11b-11-9-11--9-----------------------9----9-------|
D|------------------------------11---------------9-11--------11---|
A|---------------------------------------------11-----------------|
E|----------------------------------------------------------------|


e|-4----------5-----------------------2--------2-|
B|-5----------5-----------------------2--------2-|
G|-6----------6-----------------------2--------2-|
D|-6----------4-----------------------4--------4-|
A|-4---------------------------------------------|
E|-----------------------------------------------|
 |
G|-----------------------------------------------|
D|-----------------------------------------------|
A|-4-4-4--4-----------------4-4-4--4-------------|
E|------------5-5-5-4-----------------2----------|
 |
e|-----------------------------------------|
B|-----------------------------------------|
G|-------------14--------------------------|
D|-------------11b12-11-11----9h11b12------|
A|-----------------------------------------|
E|-----------------------------------------|

Ending                                      x4
e||-----------------------------------------||
B||o---------------------------------------o||
G||---------8--------4--------6-------------||
D||------6--------2--------4-----------6/7--||
A||o--4--------0--------2-----------4------o||
E||-----------------------------2-----------||

                                            x7
e||-----------------------------------------||
B||o---------------------------------------o||
G||---------8--------4--------6-------------||
D||------6--------2--------4-----------6/7--||
A||o--4--------0--------2-----------4------o||
E||-----------------------------2-----------||
 |    
G||-----------------------------------------||
D||o---------------------------------------o||
A||o--4-4------0-0------2-2----------------o||
E||-----------------------------2-2---------||


e||-----------------------------------------||
B||o---------------------------------------o||
G||---------8--------4--------6-------------||
D||------6--------2--------4-----------6/7--||
A||o--4--------0--------2-----------4------o||
E||-----------------------------2-----------||
 |    
G||-----------------------------------------||
D||o---------------------------------------o||
A||o--4-4------0-0------2-2----------------o||
E||-----------------------------2-2---------||
 |
e||-----------------------------------------||
B||o--------19b21-19b21-19b21-19-17-16\14--o||
G||-----------------------------------------||
D||-----------------------------------------||
A||o---------------------------------------o||
E||-----------------------------------------||


e||-----------------------------------------||
B||o---------------------------------------o||
G||---------8--------4--------6-------------||
D||------6--------2--------4-----------6/7--||
A||o--4--------0--------2-----------4------o||
E||-----------------------------2-----------||
 |    
G||-----------------------------------------||
D||o---------------------------------------o||
A||o--4-4------0-0------2-2----------------o||
E||-----------------------------2-2---------||


e||-----------------------------------------||
B||-----------------------------------------||
G||---------8--------4--------6-------------||
D||------6--------2--------4-----------6/7--||
A||---4--------0--------2-----------4-------||
E||-----------------------------2-----------||
 |    
G||-----------------------------------------||
D||-----------------------------------------||
A||---4-4------0-0------2-2-----------------||
E||-----------------------------2-2---------||
 |
e||-----------------------------------------||
B||--10-12-12-12-10-12-12-12-10-12-12-12-14-||
G||-----------------------------------------||
D||-----------------------------------------||
A||-----------------------------------------||
E||-----------------------------------------||

(x)b(y)  bend x to y
   /     slide up
   \     slide down
comments
print report bad tab
1 comment total.
0 reply
benthraenert wrote on April 17 2008, 07:47 pm

This is actually a very good tab


i love this song its is the kick ass shtuff dude

I want to post or [tab]
guest
You may want to rate the tab now too:
select rating
Please do not post tabs as comments. Select "correction" instead!