Oops, an error
Loading. Please wait.

Catalepsy Bass Tab

541 views 3 this week
no commentswrite comment
1 2 3 4 5
accurate
x 1
Autoscroll
+/-
esc
set tempo
stop
Contributor
Difficulty
intermediate
Hey! There's an official Ultimate Guitar app which is ideal
for learning songs when you're away from computer. Get the app
WARNING: You are trying to view
                                    content from Ultimate-Guitar.com
                                    in an unauthorized application,
                                    which is prohibited.

                                    Please use an official Ultimate
                                    Guitar Tabs application for iPhone,
                                    iPad or Android to access legitimate
                                    chords, guitar, bass, and drum tabs
                                    from Ultimate-Guitar.com database.

                                    Type "ultimate guitar tabs" in Apple
                                    App Store's or Android Market's
                                    search to find the application.
Band: The Red Chord
Album: Fused Together In Revolving Doors
Song: Catalepsy
Transcribed By: The Great Southern Trendkill 
E-mail: fromadyingfetus@aol.com  

.  - palm mute 
/  -  slide up to        
\  - slide down to  
b  - Bend
h  - Hammer
"  - Tremolo Picking

Tuning:(D G C F)

Easy access: CTRL + F
Search for "LEFT GUITAR" - "RIGHT GUITAR"


LEFT GUITAR:

D|-------------------------|
A|-------------------------|
F|---------------"3--------|
C|---------"1------"2------|3X's
G|-----------"2------"3----|
D|--"1-"0--------------"2--|

D|------------------------|
A|------------------------|
F|---------------"3-------|
C|---------"1------"2-----|
G|-----------"2--------2--|
D|--"1-"0--------------0--|


F|---------------"3--------|
C|---------"1------"2------|4X's
G|-----------"2------"3----|
D|--"1-"0--------------"2--|


F|------------------------------------------------------|
C|------------------------------------------------------|
G|--2/1----------2/1----------2/1-----------------------|
D|------0-2/1-0------0-2/1-0------0-2/1-0--2-1-0-2-1-0--|
                                         
F|-----------------------------------------------"3--------|
C|-------------------------------------------------"2------|
G|--2/1------------2/1------------2/1----------------"3----|
D|------00-2/1-00------00-2/1-00------00-2/1-00--------"2--|
       
F|------------------------------------------------------------|
C|------------------------------------------------------------|
G|--2/1------------2/1------------2/1-------------------------|
D|------00-2/1-00------00-2/1-00------00-2/1-00--4-3-1-3-1-0--|
      
F|-----------------------------------------------"3--------|
C|-------------------------------------------------"2------|
G|--2/1------------2/1------------2/1----------------"3----|
D|------00-2/1-00------00-2/1-00------00-2/1-00--------"2--|
        
F|--------------------------------------------------------------------|
C|--------------------------------------------------------------------|
G|--2/1------------2/1------------2/1---------------------------------|
D|------00-2/1-00------00-2/1-00------00-2/1-00--4-3-1-3-1-0-4-3-1-3--|
       
F|---------------------------------------------------------------|
C|---------------------------------------------------------------|
G|---------------------------------------------------------------|
D|--4-3-1-3-1-0--4-3-1-3-1-0--4-3-1-3-1-0--4-3-1-3-1-0--1-1-0-0--|
                                                
F|--"3--------|
C|----"2------|
G|------"3----|
D|--------"2--|

F|---------------"3--------|
C|---------"1------"2------|4X's
G|-----------"2------"3----|
D|--"1-"0--------------"2--|

F|---------------------------|
C|---------------------------|6X's
G|---------------------------|
D|--5-0-4-0-2-0-4-0-2-0-1-0--|
   
F|-----------------------------|
C|-----------------------------|
G|--6-5------------------------|
D|------6-5-00-1-3-5/20-20-20--|
            
F|--------------------------------|
C|--------------------------------|
G|--------------------------------|
D|--0-00-0000--0-00-000/20-20-20--|
  
F|--------------------------------------------------|
C|--------------------------------------------------|
G|-----------------------6-5-8----------------------|
D|--0-00-0000--0-00-000------6-5-00-1-3-5/20-20-20--|
 
F|--------------------------------|
C|--------------------------------|
G|--------------------------------|
D|--0-00-0000--0-00-000/20-20-20--|
    
F|--------------------------------------------------|
C|--------------------------------------------------|
G|-----------------------6-5------------------------|
D|--0-00-0000--0-00-000------6-5-00-1-3-5/20-20-20--|
   
F|---------------"3--------|
C|---------"1------"2------|4X's
G|-----------"2------"3----|
D|--"1-"0--------------"2--|

F|------------------------------------------------------|
C|------------------------------------------------------|
G|--2/1----------2/1----------2/1-----------------------|
D|------0-2/1-0------0-2/1-0------0-2/1-0--2-1-0-2-1-0--|
                                           
F|-----------------------------------------------"3--------|
C|-------------------------------------------------"2------|
G|--2/1------------2/1------------2/1----------------"3----|
D|------00-2/1-00------00-2/1-00------00-2/1-00--------"2--|
       
F|-----------------------------------------------------------------|
C|-----------------------------------------------------------------|
G|--2/1------------2/1------------2/1------------------------------|
D|------00-2/1-00------00-2/1-00------00-2/1-00--4--3--1--3--1--0--|
      
F|-----------------------------------------------"3--------|
C|-------------------------------------------------"2------|
G|--2/1------------2/1------------2/1----------------"3----|
D|------00-2/1-00------00-2/1-00------00-2/1-00--------"2--|
        
F|--------------------------------------------------------------------|
C|--------------------------------------------------------------------|
G|--2/1------------2/1------------2/1---------------------------------|
D|------00-2/1-00------00-2/1-00------00-2/1-00--4-3-1-3-1-0-4-3-1-3--|
        
F|---------------------------------------------------------------|
C|---------------------------------------------------------------|
G|---------------------------------------------------------------|
D|--4-3-1-3-1-0--4-3-1-3-1-0--4-3-1-3-1-0--4-3-1-3-1-0--1-1-0-0--|
                                             
F|--"3------------------------|
C|----"2----------------------|
G|------"3--------------------|
D|----------2--------2--2--2--|

F|----------------------------------------------------------------------------|
C|----------------------------------------------------------------------------|
G|---------3-----------------3-----------------3-----------------3------------|
D|--0-1-2----2-1-0-1-00-1-2----2-1-0-1-00-1-2----2-1-0-1-00-1-2----2-1-2-2-2--|

F|-------------------------------------------------|
C|-------------------------------------------------|
G|-----------3----------------------3--------------|
D|--00-11-22---22-11-00-11-00-11-22---22-11-00-11--|

F|-------------------------------------------|
C|-------------------------------------------|
G|-----------------3333----------------------|
D|--0000-1111-2222------2222-1111-0000-1111--|

F|---------------------------------------------|
C|---------------------------------------------|
G|-----------------3333------------------------|
D|--0000-1111-2222------2222-1111--2--2--2--0--|




RIGHT GUITAR:

D|--------------------------------------------|
A|--------------------------------------------|
F|--------------------------------------------|
C|--------------------------------------------|
G|--2-----2-2--2-2----210-210-2----0---0-0-0--|
D|--0-----0-0--0-0----210-210-0----2---2-2-2--|

D|-------------------------|
A|-------------------------|
F|---------------"3--------|
C|---------"1------"2------|4X's
G|-----------"2------"3----|
D|--"1-"0--------------"2--|

F|------------------------------------------------------|
C|------------------------------------------------------|
G|--2/1----------2/1----------2/1-----------------------|
D|------0-2/1-0------0-2/1-0------0-2/1-0--2-1-0-2-1-0--|
                                          
F|-----------------------------------------------"3---------|
C|-------------------------------------------------"2-------|
G|--2/1------------2/1------------2/1----------------"3-----|
D|------00-2/1-00------00-2/1-00------00-2/1-00--------b-2--|
       
D|------------------------------------------------------------|
A|------------------------------------------------------------|
F|------------------------------------------------------------|
C|------------------------------------------------------------|
G|--2/1------------2/1------------2/1-------------------------|
D|------00-2/1-00------00-2/1-00------00-2/1-00--4-3-1-3-1-0--|
        ..     ..      ..     ..      ..     ..  . . . . . .
D|----------------------------------------------------------|
A|----------------------------------------------------------|
F|-----------------------------------------------"3---------|
C|-------------------------------------------------"2-------|
G|--2/1------------2/1------------2/1----------------"3-----|
D|------00-2/1-00------00-2/1-00------00-2/1-00--------b-2--|
       
F|--------------------------------------------------------------------|
C|--------------------------------------------------------------------|
G|--2/1------------2/1------------2/1---------------------------------|
D|------00-2/1-00------00-2/1-00------00-2/1-00--4-3-1-3-1-0-4-3-1-3--|
        
F|---------------------------------------------------------------|
C|---------------------------------------------------------------|
G|---------------------------------------------------------------|
D|--4-3-1-3-1-0--4-3-1-3-1-0--4-3-1-3-1-0--4-3-1-3-1-0--1-1-0-0--|
                                                 . . .  . . . .
F|-----------|
C|-----------|
G|-----------|
D|--0-0-0-0--|

F|---------------"3--------|
C|---------"1------"2------|4X's
G|-----------"2------"3----|
D|--"1-"0--------------"2--|

F|---------------------------|
C|---------------------------|6X's
G|---------------------------|
D|--5-0-4-0-2-0-4-0-2-0-1-0--|
  
F|-----------------------------|
C|-----------------------------|
G|--6-5------------------------|
D|------6-5-00-1-3-5/20-20-20--|
        
F|--------------------------------|
C|--------------------------------|
G|--------------------------------|
D|--0-00-0000--0-00-000/20-20-20--|
 
F|--------------------------------------------------|
C|--------------------------------------------------|
G|--------------------------------------------------|
D|--0-00-0000--0-00-000------6-5-00-1-3-5/20-20-20--|
   
F|--------------------------------|
C|--------------------------------|
G|--------------------------------|
D|--0-00-0000--0-00-000/20-20-20--|
    
F|--------------------------------------------------|
C|--------------------------------------------------|
G|--------------------------------------------------|
D|--0-00-0000--0-00-000------6-5-00-1-3-5/20-20-20--|
    
F|---------------"3--------|
C|---------"1------"2------|4X's
G|-----------"2------"3----|
D|--"1-"0--------------"2--|

F|------------------------------------------------------|
C|------------------------------------------------------|
G|--2/1----------2/1----------2/1-----------------------|
D|------0-2/1-0------0-2/1-0------0-2/1-0--2-1-0-2-1-0--|
                                          
F|-----------------------------------------------"3---------|
C|-------------------------------------------------"2-------|
G|--2/1------------2/1------------2/1----------------"3-----|
D|------00-2/1-00------00-2/1-00------00-2/1-00--------b-2--|
      
F|-----------------------------------------------------------------|
C|-----------------------------------------------------------------|
G|--2/1------------2/1------------2/1------------------------------|
D|------00-2/1-00------00-2/1-00------00-2/1-00--4--3--1--3--1--0--|

F|-----------------------------------------------"3---------|
C|-------------------------------------------------"2-------|
G|--2/1------------2/1------------2/1----------------"3-----|
D|------00-2/1-00------00-2/1-00------00-2/1-00--------b-2--|

F|--------------------------------------------------------------------|
C|--------------------------------------------------------------------|
G|--2/1------------2/1------------2/1---------------------------------|
D|------00-2/1-00------00-2/1-00------00-2/1-00--4-3-1-3-1-0-4-3-1-3--|

F|---------------------------------------------------------------|
C|---------------------------------------------------------------|
G|---------------------------------------------------------------|
D|--4-3-1-3-1-0--4-3-1-3-1-0--4-3-1-3-1-0--4-3-1-3-1-0--1-1-0-0--|
                                                

F|-------------------------|
C|-------------------------|
G|-------------------------|
D|--2-2-2-2-------2--2--2--|
-
F|----------------------------------------------------------------------------|
C|---------3-----------------3-----------------3-----------------3------------|
G|----------------------------------------------------------------------------|
D|--0-1-2----2-1-0-1-00-1-2----2-1-0-1-00-1-2----2-1-0-1-00-1-2----2-1-2-2-2--|
    
D|-------------------------------------------------|
A|-------------------------------------------------|
F|-------------------------------------------------|
C|-------------------------------------------------|
G|-----------3----------------------3--------------|
D|--00-11-22---22-11-00-11-00-11-22---22-11-00-11--|
    
F|-------------------------------------------|
C|-------------------------------------------|
G|-----------------3333----------------------|
D|--0000-1111-2222------2222-1111-0000-1111--|
  
F|---------------------------------------------|
C|---------------------------------------------|
G|-----------------3333------------------------|
D|--0000-1111-2222------2222-1111--2--2--2--0--|

comments
We did not receive enough feedback on this tab! Please rate:
print report bad tab
1 2 3 4 5
I want to post or [tab]
guest
You may want to rate the tab now too:
select rating
Please do not post tabs as comments. Select "correction" instead!