Oops, an error
Loading. Please wait.

Dreaming In Dog Years Tab

ver1
ver1

Whole song

Interactive

More versions @911Tabs.com
2,060 views 1 this week
no commentswrite comment
1 2 3 4 5
accurate
x 5
Autoscroll
+/-
esc
set tempo
stop
Contributor
Difficulty
Tuning
intermediate
D G C F A D
Hey! There's an official Ultimate Guitar app which is ideal
for learning songs when you're away from computer. Get the app
WARNING: You are trying to view
                                    content from Ultimate-Guitar.com
                                    in an unauthorized application,
                                    which is prohibited.

                                    Please use an official Ultimate
                                    Guitar Tabs application for iPhone,
                                    iPad or Android to access legitimate
                                    chords, guitar, bass, and drum tabs
                                    from Ultimate-Guitar.com database.

                                    Type "ultimate guitar tabs" in Apple
                                    App Store's or Android Market's
                                    search to find the application.
If you have any suggestions for corrections, PM me or comment.
If I feel as if you are right in your suggestions, 
I will update the tab accordingly and possibly even put your name 
onto the tab. Thanks.

Anyway, this is the best tab, I think, I've ever seen of this song.
The intro riff, that is repeated in the song.. there might be pinched 
harmonics instead of those octaves, but it's hard to hear.. the octaves 
sound correct regardless. Also, the weird slide part could be all hammer-ons 
but to my ears, it sounds like they are slides. Enjoy and happy playing.

#----------------------------------PLEASE NOTE---------------------------------#
#This file is the author's own work and represents their interpretation of the #
#song. You may only use this file for private study, scholarship, or research. #
#------------------------------------------------------------------------------#

DREAMING IN DOG YEARS
As recorded by The Red Chord
(From the 2002 Album FUSED TOGETHER IN REVOLVING DOORS)

Transcribed by Jonathan Rose
        

Words and Music by The Red Chord

Gtr I (D G C F A D) - 'Left Channel'
Gtr II (D G C F A D) - 'Right Channel'
Gtr III (D G C F A D) - 'Piano'

 Intro
  Tech Metal Q=158
  N.C.                  Dmaj7               N.C.  E5F5/CGb5/Db
 4/4
  Gtr III                                   Gtrs I, II
                                                  PM----|
  W          W           W           +H      E  E S S S S
|----------|----------|-----------|-------------------------||
|----------|----------|-----------|-------------------------||
|----------|----------|-----------|-------------------------||
|----------|----------|-11--------|-(11)----11-10-----------||
|----------|----------|--9--------|--(9)-----x--x-7-8-8-9---||
|----------|----------|-10--------|-(10)-----9--8-7-8-8-9---||


   "Searching for a mode.."
    N.C.  E5F5GbF5Gb5/G5/D N.C.  E5F5/CGb5/Db
   3/4                    2/4
          PM----------|          PM----|
     E  E S S E S S S  S    E  E S S S S  3x
||-----------------------|----------------||
||o----------------------|---------------o||
||-----------------------|----------------||
||--11-10----------------|-11-10----------||
||o--x--x-7-8-9-8-9-9-10-|--x--x-7-8-8-9-o||
||---9--8-7-8-9-8-9-9-10-|--9--8-7-8-8-9--||


  N.C.                    Dmaj7
 4/4                           2/4
                          Gtr III
   E  E H.        H.       Q     +H
|---------------|-------------|---------||
|---------------|-------------|---------||
|---------------|-------------|---------||
|-11-10---------|---------11--|-(11)----||
|--x--x---------|----------9--|--(9)----||
|--9--8---------|---------10--|-(10)----||


   "Never again.."
    Slower Q=118
    E5GbF5E5GbF5Gb5 F5  E5GbF5E5GbF5Gb5 G5
   4/4
    Gtrs I, II
    PM--------------------------------|
    E E E E E E S S E   E E E E E E S S E  3x
||--------------------|--------------------||
||o-------------------|-------------------o||
||--------------------|--------------------||
||--------------------|-----------------5--||
||o-2-4-3-2-4-3-4-4-3-|-2-4-3-2-4-3-4-4-5-o||
||--0-2-1-0-2-1-2-2-1-|-0-2-1-0-2-1-2-2-3--||


  E5GbF5E5GbF5Gb5 F5  E5Gb5 F5  GbF5    Gb5
                     9/8
  PM----------------------|   PM    PM|   PM|
  E E E E E E S S E   E S S E E E E S S E S S
|-------------------|-------------------------|
|-------------------|-------------------------|
|-------------------|-------------------------|
|-------------------|-------3---4-3-----4-----|
|-2-4-3-2-4-3-4-4-3-|-2-4-4-3-3-4-3-3-3-4-4-4-|
|-0-2-1-0-2-1-2-2-1-|-0-2-2-1-1-2-1-1-1-2-2-2-|


  Slower Q=112
  Ab5
 4/4
  Gtr I
  W          +W
|----------|-----------------------------------|
|----------|-----------------------------------|
|----------|-----------------------------------|
|-6--------|-(6)-------------------------------|
|-6--------|-(6)-------------------------------|
|-4--------|-(4)-------------------------------|
|
| Gtr II
| W           S S S S S S S S S S S S S S S  S
|----------|------------------------------8s11-|
|----------|--------------------------6s9------|
|----------|--5s8-6s9-5s8-6s9-5s8-6s9----------|
|----------|-----------------------------------|
|----------|-----------------------------------|
|----------|-----------------------------------|


  N.C.
  S S S S S S S S S S S S S S S S
|-----------------------------------|
|-----------------------------------|
|-----------------------------------|
|-----------------------------------|
|-----4s7-----4s7-4s7-3s6-----4s7---|
|-1s4-----1s4-------------1s4-------|
|
| W
|-----------------------------------|
|-----------------------------------|
|-----------------------------------|
|-----------------------------------|
|-----------------------------------|
|-----------------------------------|


    S S S S S S S S S S S S S S S  S   S S S S S S S S S S S S S S S  S
||-----------------------------------|-----------------------------------||
||o----------------------------------|----------------------------------o||
||-----------------------------------|-----------------------------------||
||-----------------------------------|-----------------------------------||
||o-----4s7-----4s7-4s7-3s6-----4s=7-|-----4s7-----4s7-4s7-3s6-----4s=7-o||
||--1s4-----1s4-------------1s4------|-1s4-----1s4-------------1s4-------||
|
|   S S S S S S S S S S S S S S S  S   S S S S S S S S S S S S S S S  S
||------------------------------8s11-|-----------------------------8s11--||
||o-------------------------6s9------|-------------------------6s9------o||
||--5s8-6s9-5s8-6s9-5s8-6s9----------|-5s8-6s9-5s8-6s9-5s8-6s9-----------||
||-----------------------------------|-----------------------------------||
||o----------------------------------|----------------------------------o||
||-----------------------------------|-----------------------------------||


   "And while I may be.."
    N.C.
    S S S S S S S S S S S S S S S S   S S S S S S S S S S S S S S S S
||----------------------------------|----------------------------------||
||o---------------------------------|---------------------------------o||
||----------------------------------|----------------------------------||
||----------------------------------|----------------------------------||
||o-----4s7-----4s7-4s7-3s6-----4s7-|-----4s7-----4s7-4s7-3s6-----4s7-o||
||--1s4-----1s4-------------1s4-----|-1s4-----1s4-------------1s4------||
|
|   S S S S S S S S S S S S S S S S   S S S S S S S S S S S S S S S S
||----------------------------------|----------------------------------||
||o---------------------------------|---------------------------------o||
||----------------------------------|----------------------------------||
||------6s9-----6s9-6s9-5s8-----6s9-|-----6s9-----6s9-6s9-5s8-----6s9--||
||o-3s6-----3s6-------------3s6-----|-3s6-----3s6-------------3s6-----o||
||----------------------------------|----------------------------------||


   "Searching for mode.."
    Original Tempo Q=158
    N.C.  E5F5/CGb5/N.C.  E5F5GbF5Gb5/G5/D
   2/4             3/4
    Gtrs I, II
          PM----|         PM----------|
     E  E S S S S    E  E S S E S S S  S  3x
||----------------|-----------------------||
||o---------------|----------------------o||
||----------------|-----------------------||
||--11-10---------|-11-10-----------------||
||o--x--x-7-8-8-9-|--x--x-7-8-9-8-9-9-10-o||
||---9--8-7-8-8-9-|--9--8-7-8-9-8-9-9-10--||


                              H.=HSlower Q=128                    H.=H
  N.C.  E5F5/CGbN.C.  E5F5Gb5/F5GbEb5             Bbb5Eb5         E5/B
 4/4                         5/4                 11/8
        PM----|       PM|     PM|                 PM|
   E  E S S S S  E  E S S E   S S Q  Q  Q  Q  E   S S Q  Q  Q  Q  Q
|---------------------------|-------------------|---------------------||
|---------------------------|-------------------|---------------------||
|---------------------------|--------9--9--9--9-|--------9--9--9------||
|-11-10---------11-10-------|-----8--8--8--8--8-|-----8--8--8--8------||
|--x--x-7-8-8-9--x--x-7-8-9-|-8-9-7--7--7--7--7-|-7-7-7--7--7--7--7\--||
|--9--8-7-8-8-9--9--8-7-8-9-|-8-9---------------|-6-6-------------7\--||


   "And though I may be.."
    Slower Q=108
    E5GbF5E5GbF5Gb5 F5  E5GbF5E5GbF5Gb5 G5
   4/4
    PM--------------------------------|
    E E E E E E S S E   E E E E E E S S E
||--------------------|--------------------||
||o-------------------|-------------------o||
||--------------------|--------------------||
||--------------------|-----------------5--||
||o-2-4-3-2-4-3-4-4-3-|-2-4-3-2-4-3-4-4-5-o||
||--0-2-1-0-2-1-2-2-1-|-0-2-1-0-2-1-2-2-3--||


  Faster Q=112
  E5GbF5          E5GbF5          Gb5 F5
  Gtr I
  PM-----------------------------------------------
  E E  E          E E  E          S S  E
|-------------------------------------------------|
|-------------------------------------------------|
|-------------------------------------------------|
|-------------------------------------------------|
|-2-4--3----------2-4--3----------4-4--3----------|
|-0-2--1----------0-2--1----------2-2--1----------|
|
| Gtr II
| PM|             PM|             PM|
| E E  S      +S  E E  S      +S  S S  S      +S
|-------------------------------------------------|
|-----[5]b5.5r(5)-----[5]b5.5r(5)-----[5]b5.5r(5)-|
|-------------------------------------------------|
|-------------------------------------------------|
|-2-4-------------2-4-------------4-4-------------|
|-0-2-------------0-2-------------2-2-------------|


  E5GbF5          E5GbF5          Gb5 G5
 -----------------------------------|
  E E  E          E E  E          S S E
|---------------------------------------|
|---------------------------------------|
|---------------------------------------|
|-------------------------------------5-|
|-2-4--3----------2-4--3----------4-4-5-|
|-0-2--1----------0-2--1----------2-2-3-|
|
| PM|             PM|             PM|
| E E  S      +S  E E  S      +S  S S E
|---------------------------------------|
|-----[5]b5.5r(5)-----[5]b5.5r(5)-------|
|---------------------------------------|
|-------------------------------------5-|
|-2-4-------------2-4-------------4-4-5-|
|-0-2-------------0-2-------------2-2-3-|


  E5GbF5          E5GbF5          Gb5 F5
  PM-----------------------------------------------
  E E  E          E E  E          S S  E
|-------------------------------------------------|
|-------------------------------------------------|
|-------------------------------------------------|
|-------------------------------------------------|
|-2-4--3----------2-4--3----------4-4--3----------|
|-0-2--1----------0-2--1----------2-2--1----------|
|
| PM|             PM|             PM|
| E E  S      +S  E E  S      +S  S S  S      +S
|-----[7]b7.5r(7)-----[7]b7.5r(7)-----[7]b7.5r(7)-|
|-------------------------------------------------|
|-------------------------------------------------|
|-------------------------------------------------|
|-2-4-------------2-4-------------4-4-------------|
|-0-2-------------0-2-------------2-2-------------|


  E5GbF5          E5GbF5          Gb5 G5
 -----------------------------------|
  E E  E          E E  E          S S S S
|-----------------------------------------|
|-----------------------------------------|
|-----------------------------------------|
|-------------------------------------5---|
|-2-4--3----------2-4--3----------4-4-5---|
|-0-2--1----------0-2--1----------2-2-3---|
|
| PM|             PM|             PM|
| E E  S      +S  E E  S      +S  S S S S
|-----[7]b7.5r(7)-----[7]b7.5r(7)---------|
|-----------------------------------------|
|-----------------------------------------|
|-------------------------------------5---|
|-2-4-------------2-4-------------4-4-5---|
|-0-2-------------0-2-------------2-2-3---|


  G5      Bb5          Db5     G5Bb5/AbB5/GDb5/Ab            Gb5/Db
 6/8                                                   3/8
  Gtrs I, II
  PM----|      PM----|                           PM-----|
  T T T T S E. T T T T  S E.   S S S S S S  E E  S  S    S S  Q
|----------------------------|------------------------|------------||
|----------------------------|------------------------|------------||
|----------------------------|------------------------|------11\---||
|---------8------------11----|-5s8---6s9---11---11-11-|-11---11\---||
|-5-5-5-5-8----8-8-8-8-11----|-5s8---6s9---11---11-11-|-11---------||
|-3-3-3-3-6----6-6-6-6--9----|------------------------|------------||


   "Be it seven seconds.."
    N.C.
   4/4
    Gtr I
    S S S S S S S S S S S S S S S  S   S S S S S S S S S S S S S S S  S
||-----------------------------------|-----------------------------------||
||o----------------------------------|----------------------------------o||
||-----------------------------------|-----------------------------------||
||-----------------------------------|-----------------------------------||
||o-----4s7-----4s7-4s7-3s6-----4s=7-|-----4s7-----4s7-4s7-3s6-----4s=7-o||
||--1s4-----1s4-------------1s4------|-1s4-----1s4-------------1s4-------||
|
|   Gtr II
|   S S S S S S S S S S S S S S S  S   S S S S S S S S S S S S S S S  S
||------------------------------8s11-|-----------------------------8s11--||
||o-------------------------6s9------|-------------------------6s9------o||
||--5s8-6s9-5s8-6s9-5s8-6s9----------|-5s8-6s9-5s8-6s9-5s8-6s9-----------||
||-----------------------------------|-----------------------------------||
||o----------------------------------|----------------------------------o||
||-----------------------------------|-----------------------------------||


  H.=H
  S S S  S S S S  S S S S  S S  S S  S
|---------------------------------9s12-|
|----------------------------7s10------|
|-6s9-7s10-6s9-7s10-6s9-7s10-----------|
|--------------------------------------|
|--------------------------------------|
|--------------------------------------|
|
| S S S  S S S S  S S S S  S S  S S  S
|---------------------------------8s11-|
|----------------------------6s=9------|
|-5s8-6s=9-5s8-6s=9-5s8-6s=9-----------|
|--------------------------------------|
|--------------------------------------|
|--------------------------------------|


  Slower Q=108                           Faster Q=112
                                         DbG5AbBbA5Ab5
                                        3/4
                                               PM--|
  S S S  S S S S  S S S S  S S  S S  S   E E E E E E
|---------------------------------9s12-|--------------||
|----------------------------7s10------|--------------||
|-6s9-7s10-6s9-7s10-6s9-7s10-----------|-6------------||
|--------------------------------------|-6-5-6--------||
|--------------------------------------|-4-5-6-8-7-6--||
|--------------------------------------|---3-4-6-5-4--||
|
|                                              PM--|
| S S S  S S S S  S S S S  S S  S S  S   E E E E E E
|---------------------------------8s11-|--------------||
|----------------------------6s=9------|--------------||
|-5s8-6s=9-5s8-6s=9-5s8-6s=9-----------|-6------------||
|--------------------------------------|-6-5-6--------||
|--------------------------------------|-4-5-6-8-7-6--||
|--------------------------------------|---3-4-6-5-4--||


   "Just like the kiss that.."
    B5BbD5GbG5 Gb5                       F5E5D5GbG5 Bbb5
   4/4
    Gtrs I, II
        PM                                   PM
    S E S S E.  S  S  S  S  S  S  S  S   S E S S E.  S  S  S  S  S  S  S  S
||-------------------------------------|------------------------------------|
||o------------------------------------|------------------------------------|
||--4-3--------12-12-12-12-12-12-12-12-|------------15-15-15-15-15-15-15-15-|
||--4-3-0-4-5--11-11-11-11-11-11-11-11-|-3-2-0-4-5--14-14-14-14-14-14-14-14-|
||o-2-1-0-4-5--10-10-10-10-10-10-10-10-|-3-2-0-4-5--13-13-13-13-13-13-13-13-|
||--------2-3--------------------------|-1-0---2-3--------------------------|


  B5BbD5GbG5 Gb5                       E5    F5   DbG5AbBbA5Ab5
                                      5/4
      PM                                   PM           PM--|
  S E S S E.  S  S  S  S  S  S  S  S   S E S S E. E E E E E E
|------------------------------------|-------------------------||
|------------------------------------|------------------------o||
|-4-3--------12-12-12-12-12-12-12-12-|------------6------------||
|-4-3-0-4-5--11-11-11-11-11-11-11-11-|-2-2---3-3--6-5-6--------||
|-2-1-0-4-5--10-10-10-10-10-10-10-10-|-2-2-2-3-3--4-5-6-8-7-6-o||
|-------2-3--------------------------|-0-0-0-1-1----3-4-6-5-4--||


 Odd Bridge
  Original Tempo Q=158
  Eb5                        N.C.  E5F5/CGb5/Db
                            2/4
                                   PM----|
  S E. S E. S E. S E. S E.    E  E S S S S
|--------------------------|---------------|
|--------------------------|---------------|
|------9-9--9-9--9-9--9-9--|---------------|
|-8-8--8-8--8-8--8-8--8-8--|-11-10---------|
|-7-7--7-7--7-7--7-7--7-7--|--x--x-7-8-8-9-|
|--------------------------|--9--8-7-8-8-9-|


                         Slower Q=118
  N.C.  E5F5GbF5Gb5/G5/D N.C.
 3/4                    4/4
        PM----------|
   E  E S S E S S S  S   S S S S S S S S S S S S S S S S
|----------------------|---------------------------------||
|----------------------|---------------------------------||
|----------------------|---------------------------------||
|-11-10----------------|---------------------------------||
|--x--x-7-8-9-8-9-9-10-|-----4s7-----4s7-4s7-3s6-----4s7-||
|--9--8-7-8-9-8-9-9-10-|-1s4-----1s4-------------1s4-----||


 "Hypertension?"
  Faster Q=198
  E5                     N.C.
  Gtr I
  PM
  E   H..                W
|----------------------|-------------------|
|----------------------|-------------------|
|----------------------|-------------------|
|----------------------|-------------------|
|-2--------------------|-------------------|
|-0--------------------|-------------------|
|
| Gtr II
| Q..      S Q  a Q  a   Q..   S Q  a Q  a
|------------9s=3-8s=2-|---------9s=3-8s=2-|
|----------------------|-------------------|
|----------------------|-------------------|
|----------------------|-------------------|
|----------------------|-------------------|
|-1s=======7-----------|-1s====7-----------|


                      T      T     T      T
                      |-3-|  |-3-| |-3-|  |-3-|
  W                   E E E  E E E E E E  E E E
|-------------------|---------------------------|
|-------------------|---------------------------|
|-------------------|---------------------------|
|-------------------|---------------------------|
|-------------------|-8-2h5-12-5h8-8-2h5-12-5h8-|
|-------------------|---------------------------|
|
|                     T      T     T      T
|                     |-3-|  |-3-| |-3-|  |-3-|
| Q..   S Q  a Q  a   E E E  E E E E E E  E E E
|---------9s=3-8s=2-|---------------------------|
|-------------------|---------------------------|
|-------------------|---------------------------|
|-------------------|---------------------------|
|-------------------|-8-2h5-12-5h8-8-2h5-12-5h8-|
|-1s====7-----------|---------------------------|


    Gtrs I, II
    Q..   S Q  a Q  a   Q..   S Q  a Q  a
||----------9s=3-8s=2-|---------9s=3-8s=2-|
||o-------------------|-------------------|
||--------------------|-------------------|
||--------------------|-------------------|
||o-------------------|-------------------|
||--1s====7-----------|-1s====7-----------|


                      T      T     T      T
                      |-3-|  |-3-| |-3-|  |-3-|
  Q..   S Q  a Q  a   E E E  E E E E E E  E E E
|---------9s=3-8s=2-|-------------------------------||
|-------------------|------------------------------o||
|-------------------|-------------------------------||
|-------------------|-------------------------------||
|-------------------|-8-2h5-12-5h8-8-2h5-12-5h8----o||
|-1s====7-----------|-------------------------------||


  F5E5   AbG5GbF5/CG5GbF5E5/B  F5E5   AbG5GbF5/CG5GbF5E5/B
  PM     PM--------------------|      PM--------------|
  E Q.   S S S S   S S S S     E Q.   S S S S   S S S S
|----------------------------|----------------------------|
|----------------------------|----------------------------|
|----------------------------|----------------------------|
|---2----6-5-4-3---5-4-3-2---|---2----6-5-4-3---5-4-3-2---|
|-3-2----6-5-4-3---5-4-3-2---|-3-2----6-5-4-3---5-4-3-2---|
|-1-0------------------------|-1-0------------------------|
|
| Gtr II
| PM                           PM
| E Q.   Q       a Q       a   E Q.   Q       a Q       a
|--------9s======3-8s======2-|--------9s======3-8s======2-|
|----------------------------|----------------------------|
|----------------------------|----------------------------|
|---2------------------------|---2------------------------|
|-3-2------------------------|-3-2------------------------|
|-1-0------------------------|-1-0------------------------|


                               H.=H
  F5E5   AbG5GbF5/CG5GbF5E5/B  N.C.
  PM     PM--------------|     T      T     T      T
                               |-3-|  |-3-| |-3-|  |-3-|
  E Q.   S S S S   S S S S     E E E  E E E E E E  E E E
|----------------------------|---------------------------||
|----------------------------|---------------------------||
|----------------------------|---------------------------||
|---2----6-5-4-3---5-4-3-2---|---------------------------||
|-3-2----6-5-4-3---5-4-3-2---|-8-2h5-12-5h8-8-2h5-12-5h8-||
|-1-0------------------------|---------------------------||
|
| PM                           T      T     T      T
|                              |-3-|  |-3-| |-3-|  |-3-|
| E Q.   Q       a Q       a   E E E  E E E E E E  E E E
|--------9s======3-8s======2-|---------------------------||
|----------------------------|---------------------------||
|----------------------------|---------------------------||
|---2------------------------|---------------------------||
|-3-2------------------------|-8-2h5-12-5h8-8-2h5-12-5h8-||
|-1-0------------------------|---------------------------||


   "And it's not gonna be.."
    Slower Q=152
    F5E5   AbG5GbF5G5GbF5E5/BF5E5   AbG5GbF5G5GbF5E5/B
    Gtrs I, II
    PM     PM----------------|      PM------------|
    E Q.   S S S S S S S S   E Q.   S S S S S S S S
||-------------------------|------------------------|
||o------------------------|------------------------|
||-------------------------|------------------------|
||----2----6-5-4-3-5-4-3-2-|---2----6-5-4-3-5-4-3-2-|
||o-3-2----6-5-4-3-5-4-3-2-|-3-2----6-5-4-3-5-4-3-2-|
||--1-0--------------------|-1-0--------------------|


  F5E5   AbG5GbF5G5GbF5E5/BN.C.
  PM     PM------------|
  E Q.   S S S S S S S S   S S S S  S S  S S S S S S  S S  S  S
|------------------------|---------------------------------------||
|------------------------|--------------------------------------o||
|------------------------|---------------------------------------||
|---2----6-5-4-3-5-4-3-2-|---------------------------------------||
|-3-2----6-5-4-3-5-4-3-2-|-8p5-8p5-12p8-12p8-8p5-8p5-12p8-------o||
|-1-0--------------------|--------------------------------12p10--||


  F5E5   AbG5GbF5G5GbF5E5/BF5E5   AbG5GbF5G5GbF5E5/B
  PM|    PM------------------|    PM------------|
  E E Q  S S S S S S S S   E E Q  S S S S S S S S
|------------------------|------------------------|
|------------------------|------------------------|
|------------------------|------------------------|
|--------6-5-4-3-5-4-3-2-|--------6-5-4-3-5-4-3-2-|
|-3-2----6-5-4-3-5-4-3-2-|-3-2----6-5-4-3-5-4-3-2-|
|-1-0--------------------|-1-0--------------------|


  F5E5   AbG5GbF5G5GbF5E5/BN.C.
  PM|    PM------------|
  E E Q  S S S S S S S S   S S S S  S S  S S S S S S  S S  S  S
|------------------------|--------------------------------------||
|------------------------|--------------------------------------||
|------------------------|--------------------------------------||
|--------6-5-4-3-5-4-3-2-|--------------------------------------||
|-3-2----6-5-4-3-5-4-3-2-|-8p5-8p5-12p8-12p8-8p5-8p5-12p8-------||
|-1-0--------------------|--------------------------------12p10-||


 Outro
  F5E5   AbG5GbF5G5GbF5E5/BF5E5   AbG5GbF5G5GbF5E5/B
  PM     PM----------------|      PM------------|
  E Q.   S S S S S S S S   E Q.   S S S S S S S S
|------------------------|------------------------|
|------------------------|------------------------|
|------------------------|------------------------|
|---2----6-5-4-3-5-4-3-2-|---2----6-5-4-3-5-4-3-2-|
|-3-2----6-5-4-3-5-4-3-2-|-3-2----6-5-4-3-5-4-3-2-|
|-1-0--------------------|-1-0--------------------|


  F5E5   AbG5GbF5G5GbF5E5/BN.C.
  Gtr I
  PM     PM------------|    T      T       T      T
                            |-3-|  |-3--|  |-3-|  |-3--|
  E Q.   S S S S S S S S    E E E  E E  E  E E E  E E  E
|------------------------|-------------------------------|
|------------------------|-------------------------------|
|------------------------|-------------------------------|
|---2----6-5-4-3-5-4-3-2-|-------------------------------|
|-3-2----6-5-4-3-5-4-3-2-|--8-2h5-12-5h=8--8-2h5-12-5h=8-|
|-1-0--------------------|-------------------------------|
|
| Gtr II
| PM     PM------------|    T      T       T      T
|                           |-3-|  |-3--|  |-3-|  |-3--|
| E Q.   S S S S S S S S    E E E  E E  E  E E E  E E  E
|------------------------|-------------------------------|
|------------------------|-------------------------------|
|------------------------|-10-4h7-14-7h10-10-4h7-14-7h10-|
|---2----6-5-4-3-5-4-3-2-|-------------------------------|
|-3-2----6-5-4-3-5-4-3-2-|-------------------------------|
|-1-0--------------------|-------------------------------|


                              F5E5
  T      T     T      T       PM
  |-3-|  |-3-| |-3-|  |-3-|
  E E E  E E E E E E  E E E   E E H.
|---------------------------|-----------*|
|---------------------------|-----------*|
|---------------------------|-----------*|
|---------------------------|---2-------*|
|-7-1h4-10-4h7-7-1h4-10-4h7-|-3-2-------*|
|---------------------------|-1-0-------*|
|
| T      T     T      T       PM
| |-3-|  |-3-| |-3-|  |-3-|
| E E E  E E E E E E  E E E   E E H.
|---------------------------|-----------*|
|---------------------------|-----------*|
|-9-3h6-12-6h9-9-3h6-12-6h9-|-----------*|
|---------------------------|---2-------*|
|---------------------------|-3-2-------*|
|---------------------------|-1-0-------*|



Duration Legend
---------------
W - whole; H - half; Q - quarter; E - 8th; S - 16th; T - 32nd; X - 64th; a - acciaccatura
+ - note tied to previous; . - note dotted; .. - note double dotted
Uncapitalized letters represent notes that are staccato (1/2 duration)
Irregular groupings are notated above the duration line
Duration letters will always appear directly above the note/fret number it represents the
duration for.  Duration letters with no fret number below them represent rests.  Multi-
bar rests are notated in the form Wxn, where n is the number of bars to rest for.  Low
melody durations appear below the staff

Tablature Legend
----------------
 h   - hammer-on
 p   - pull-off
 b   - bend
 pb  - pre-bend
 r   - bend release (if no number after the r, then release immediately)
 /\  - slide into or out of (from/to "nowhere")
 s   - legato slide
 S   - shift slide
<n> - natural harmonic
[n]  - artificial harmonic
n(n) - tapped harmonic
 ~   - vibrato
 tr  - trill
 T   - tap
 TP  - trem. picking
 PM  - palm muting
\n/  - tremolo bar dip; n = amount to dip
 \n  - tremolo bar down
 n/  - tremolo bar up
/n\  - tremolo bar inverted dip
 =   - hold bend; also acts as connecting device for hammers/pulls
 <> - volume swell (louder/softer)
 x   - on rhythm slash represents muted slash
 o   - on rhythm slash represents single note slash

Misc Legend
-----------
 |  - bar
||  - double bar
||o - repeat start
o|| - repeat end
*|  - double bar (ending)
 :  - bar (freetime)
 $  - Segno
 &  - Coda
Tempo markers - <E/E./Q/Q./H/H.> = BPM(8/16=s8/s16), where s8 = swing 8ths, s16 = swing 16ths


** Generated using Power Tab Editor by Brad Larsen: The Official Power Tab Web Site
comments
print report bad tab
I want to post or [tab]
guest
You may want to rate the tab now too:
select rating
Please do not post tabs as comments. Select "correction" instead!