Oops, an error
Loading. Please wait.

Dont You Fake It Chords

9,164 views 1 this week
1 commentread comment
1 2 3 4 5
excellent!
x 2
add to favorites launch autoscroll
font size
0
reset
transpose
0
reset
highlight chords
display chords
Autoscroll
+/-
esc
set tempo
stop
Contributor
WARNING: You are trying to view
                                    content from Ultimate-Guitar.com
                                    in an unauthorized application,
                                    which is prohibited.

                                    Please use an official Ultimate
                                    Guitar Tabs application for iPhone,
                                    iPad or Android to access legitimate
                                    chords, guitar, bass, and drum tabs
                                    from Ultimate-Guitar.com database.

                                    Type "ultimate guitar tabs" in Apple
                                    App Store's or Android Market's
                                    search to find the application.
The Red Jumpsuit Apparatus
Don't You Fake It
2007
Submitted by: paramore_fans@yahoo.com

Tuning: Standard EADGBe

Tracklist:
01. In Fate's Hands
02. Waiting
03. False Pretense
04. Face Down
05. Misery Loves Its Company
06. Cat and Mouse
07. Damn Regret
08. Atrophy
09. Seventeen Ain't So Sweet
10. Justify
11. Your Guardian Angel


Bonus Tracks:
12. The Grim Goodbye
13. Love Seat
14. Disconnected
15. 20 Hour Drive
16. Kins and Carolls
17. Angels Cry
18. Home Improvement
19. Getting By
___________________________________________________

1.) In Fate's Hands

Key: Eb

Tuning: Standard EADGBe

Chords used:
Cm7 -  x313xx
G#M7 - 465xxx
G# -   466544
Cm -   x35543
Bb -   x13331
Eb -   x68886


Intro:

Silence:
Cm7--Eb-G#M7---Bb


Distortion:
Cm--Eb-G#---Bb


Verse 1:
Cm(hold)
  I remember a year ago I was
standing in the crowd
Bb      G#
waiting for my chance to break
through, my chance to live again
Cm(hold)
  Now it seems I've found some friends
                       Bb      G#
who finally understand what it takes
to make this dream come true,
we'll be here till the end.


Chorus:
Cm
Shake it, break it, get off your feet,
                G#
come dance with me and don't you fake it.
(repeat)


Guitar 2: at "fake it"
e|-------------|
B|-------------|
G|-3-1-0-------|
D|-------3-0-1-|
A|-------------|
E|-------------|


Verse 2:
Cm(hold)
Shout and scream my friends,
                    Bb       G#
connect with me and we'll pretend
this night will never end
this night will never end
Cm(hold)
Just let go you'll see
                  Bb G#
together we'll do anything
this night will never end
wo oh this night will never end


(Repeat Chorus)


Bridge:
Cm  Bb           Eb
Oh, wish I could thank you
                      Bb
all for what you have done
               G#
and all of the things that
         Bb
you have shared with me.
Cm  Bb           Eb
Oh, wish I could take you all too
             Bb              G#
where I must go wish I could take you all
     Bb               Cm--G#(bass lines)
I'll take you with my heart


Cm--G#
"Dance, get on the floor, shake,
get on the floor, break, get on the floor"
(Repeat)


(Repeat Chorus)


Outro:
G#                         Bb
  I'm reaching out here to show
you what we've been through
G#
  I think there's something
       Bb
we can share, that's completely new
G#                    Bb
  or maybe I'm just insane
Cm
Shake it break it get off your feet


Bass line: while doing outro
G|-5-3-------------------------|--------------------|
D|-----6-5-3-------------------|--------------------|
A|-----------6-5-3--1-1--1-1--1|-3-3--3-3--3-3--3-3-|
E|-----------------------------|--------------------|
           x3
_______________________________________________________________

2.) Waiting

Key: F

Tuning: Standard EADGBe

Chords used:
F -  133211
C -  x32010
Dm - xx0231
Bb - x13331


Intro: Dm--C-F--Bb---C

Guitar 2:
e|-3-3-1-1-3-3-1-1-3-3-1-1-0-1-|-5-5-5-5-5-|-0-0-0-0-0-|
B|-1-1-1-1-1-1-1-1-1-1-1-1-1-1-|-6-6-6-6-6-|-1-1-1-1-1-|
G|-----------------------------|-3-3-3-3-3-|-0-0-0-0-0-|
D|-----------------------------|-----------|-----------|
A|-----------------------------|-----------|-----------|
E|-----------------------------|-----------|-----------|
               x2                   x5


Verse 1:
Dm
Feeling sorrow
for all the things you
        Bb
had to steal and borrow
Bring back the days we
      Dm
had before tomorrow
relapse and then collapse
  Bb               C
into yourself once more


Chorus:
Dm               C       F
Waiting for this life to change
seems like it's taking me forever
Bb                                  C
  and I can't hold on. This life is breaking
           Dm               C        F
And in the day this life is going to change
seems like it's taking me forever
Bb                                  C
  And I can't hold on. This life is breaking
           Dm
And in the day


Post Chorus: Dm--C-Dm

Guitar 1:
Metallic Riff ah means artificial harmonics
e|-5---------0ah20-----------|
B|-6-8-6-8-6-1ah13--|
G|---9-7-9-7-----------------|
D|---------------------------|
A|---------------------------|
E|---------------------------|

Guitar 2: tr means tremolo effect
e|-5---------8tr-|
B|---8-6-5-6-----|
G|---------------|
D|---------------|
A|---------------|
E|---------------|


Verse 2:
Dm
But I can't feel
The doctor tells me
     Bb
to relax and stand still
Prescribe me a new pill
   Dm
to quell my anger
Wish I could make her pull
   Bb              C
herself up off the floor


(Repeat Chorus)


 Bb  F       Dm   Bb  C
again in the day again


(Repeat Chorus)


Outro:
Dm           F
Take time to contemplate who you
Bb                C
are and where you want to go
(Repeat)


Dm--C-Dm

Guitar 1:
Metallic Riff ah
e|-5---------0ah20-----------|
B|-6-8-6-8-6-1ah13--|
G|---9-7-9-7-----------------|
D|---------------------------|
A|---------------------------|
E|---------------------------|

Guitar 2: tr
e|-5---------8tr-|
B|---8-6-5-6-----|
G|---------------|
D|---------------|
A|---------------|
E|---------------|

_____________________________________________________________


3.) False Pretense

Key: Eb

Tuning: Standard EADGBe

Chords used:
Cm -   x35543
Bb/D - x587xx
Eb -   x68886
Fm -   133111
G  -   355433
G# -   466544
Bb -   x13331


Intro: Cm-Eb-G#-Fm-Eb-- (x3) Cm-Eb-Bb
Its time to let it go...


Verse 1:
G#
  The world's got a funny
               Bb
way of turning round on you
Cm
  When a friend tries to
         Bb           G#
stab you right in the face
Losing faith in everything
            Bb
I thought I hoped I knew
Cm
  Don't sweat it, (it was)
       Bb       G#
set on false pretense


Refrain:
Betrayed but not gonna
   Bb         Cm
be willing to change
                    Bb        G#
And it doesn't seem likely to fade
Betrayed but not gonna
   Bb         G
be willing to change
cu cu cu cuz ya know.....


Chorus:
    Cm   Eb
Its Sacrifice
G#       Eb           Cm    Bb
False pretense you'll hurt again
 G#             Cm   Eb
Stop pretending to deny
G#       Eb           Cm    Eb  Bb
False pretense you'll hurt again


Verse 2:
G#
  All along you know you
                    Bb
thought you got the best of me
Cm
  But you were wrong and I am
         Bb            G#
laughing right in your face
I can not believe you
                    Bb
claimed you were my family
Cm
  Dont sweat it its
             Bb
set on false pretense


(Repeat Refrain and Chorus)


Cm-G#-Bb(x4)
Its time to let it go


Bridge:
Cm      G#      Bb
I can't seem to understand it how
Cm         G#     Bb
You turned out to be so cold
Cm        G#       Bb
You tried but were caught red handed
        Cm    G#        Bb
Are you happy with your role?
G#
  Its funny to me how you've
       Bb
turned into such a joke


(Repeat Chorus)


Outro:
   Cm-Eb-G#-Fm    Eb     Cm  
 G#
So play       the game until you run out
    Cm-Eb-G#-Fm          Cm Eb Bb
And play      the game into my hand

_______________________________________________________

4.) Face Down

Key: Bb

Tuning: Standard EADGBe

Chords used:
Gm-  355333
Eb - x68886
Bb - x13331
F -  133211


Intro:

Guitar 1: Gm--Eb--Bb--F--

Guitar 2:

Delay pedal
e|----------|------------|
B|----------|------------|
G|-10~------|------------|
D|--x~------|-pickslide--|
A|--8~------|------------|
E|----------|------------|
      x3


Verse 1: Palm mute
Gm
  Hey girl, you know you drive me crazy
Eb
  One look puts the rhythm in my head
Bb
  Still I'll never understand why you hang around
F
  I see what's going down


Guitar 2: at down
E|-13-
B|-11-
G|----
D|----
A|----
E|----

Gm
  Cover up with makeup in the mirror
Eb
  Tell yourself it's never gonna happen again
Bb                          F
  You cry alone and then he swears he loves you


CHORUS:
Gm                   Eb
  Do you feel like a man when you push her around?
Bb                   F
  Do you feel better now she falls to the ground
Gm                       Eb
  Well, I'll tell you my friend
one day this world's going to end
Bb
  As your lies crumble down
F
  a new life she has

        Gm
Scream: found


Guitar 2: While doing chorus
e|-------------13----13h5p13-|-------------------13----|
B|-11----11-------11---------|-11----11----11-------11-|
G|----10----10---------------|----10----10----10-------|
D|---------------------------|-------------------------| (x2)
A|---------------------------|-------------------------|
E|---------------------------|-------------------------|
             x2                            x2


Verse 2:
Gm
  A pebble in the water makes a ripple effect
Eb
  Every action in this world will bear a consequence
Bb
  If you wait around forever you will surely drown
F
  I see what's going down


Sing slower:
Gm                         Eb
  I see the way you go and say you're right again
Bb                   F
Say your right again Heed my lecture


(Repeat Chorus except last line)


Gm                 Eb
  Face down in the dirt she said
              Bb
"this doesn't hurt"
               F
She said "I've finally had enough"
(Repeat)


Bridge: All scream!!!
Gm                      Eb
  One day she will tell you
         Bb
that she has had enough
F
  It's coming round again
(Repeat)


(Repeat chorus twice)


Outro:
Gm                      Eb
  One day she will tell you
         Bb
that she has had enough
F
  It's coming round again
(Repeat)


End on Gm

_________________________________________________________

5.) Misery Loves Its Company

Key: G

Tuning: Standard EADGBe

Chords used:
Em -   022000
C -    x32010
G -    320033
D -    xx0232
D/F# - 2x023x
Am -   x02210
B7 -   x21202


Intro:
Em       C
  Listen close
      G                   D/F#
as we wait for a sound to go


Growl:
     Em
It's true we are
       C               (metallic riff)
we are destined to fail
     Em
It's true we are
       C               D
we are destined to fail


Metallic Riff:
e|-------------|
B|-------------|
G|-2h4p2h4p2h4-
D|-------------|
A|-------------|
E|-------------|


Verse 1:
Em
  There is a problem
here with our society
C
  The absence of my
              Am
tears is my sobriety
Em
  I have a growing fear and
you're not helping me
C
  Am I the only one who

realizes it's...


Cool Riff: at "I have a growing fear..."
e|-------------|
B|-------------|
G|-4-----------|
D|---7-5-4-5---| x4
A|-----------5-|
E|-palm-mute---


Chorus 1:
   Em
...true Beat but I'm not broken
C
  Guide me through with your hand
G
  Lead with your words spoken
B7
  Show me how to listen


Verse 2:
Em
  You're persecuting me
showing hypocrisy
C
  I have a remedy for
         (hold)
your insecurity
Em
   It's all the same sadly
nobody works for free
C
  Am I the only one who
realizes it's


(Repeat Chorus 1)


Chorus 2:
Em
  Let your light shine through me
C                          G
  Take this hate I can't release
Help me make the blind see
B7       D
  Misery loves its company


Interlude: Em


Bridge:
Em
When I dream, I see dawn turn
          D        Em-C-G-B7
into dusk into dusk

(Repeat Chorus 1 and 2)
(Repeat Intro growl)


Outro Riff: Em
e|-----------|-----------|
B|-----------|-----------|
G|-----------|-2h4p2-----|
D|-4h5p4-0h2-|-4h5p4-4-5-|
A|-----------|-------5-7-|
E|-----------|-----------|
      x2          x2
_____________________________________________________
6.) Cat And Mouse

Key: C

Chords used:
Am - x02210
C -  x32010
F -  133211
G -  320003


Intro: Am, G, C

Am        G       C
Softly we tremble tonight,
Am              G                 C
picture perfect fading smiles are all that's left in site,
Am         G           C
I said I'd never leave you'll never change
        Am             G               C
I'm not satisfied with where I'm at in life.

Am    C                F
   Am I supposed to be happy?

   With all I ever wanted, it comes with a price.
Am    C                F
   Am I supposed to be happy?

   With all I ever wanted, it comes with a price.
Am           C                       F
   You said, you said that you would die for me….

We made plans to grow old,
believe me there was truth in all those stories that I told.
Lost in a simple game cat and mouse are we the same
people as before this came to light?

Am I supposed to be happy?
with all I ever wanted, it comes with a price.
Am I supposed to be happy?
with all I ever wanted, it comes with a price.
You said, you said that you would die for me…

N.C.                 G   F
You must live for me too...
       G   F              Am C F Am C
For me too...yeah, yeah…
                    F
said that you would die for me…

Am I supposed to be happy?
with all I ever wanted, it comes with a price.
Am I supposed to be happy?
with all I ever wanted, it comes with a price
You said, you said that you would die for me.
______________________________________________________

7.) Damn Regret

Key: D

Tuning: Standard EADgBe

Chords used:
D -   xx0232
A -   x02220
Bm -  x24432
F#m - 244222
G -   320033
Em -  022000


Intro: D--A--G--Bm-A x2


Verse 1:
D	             A
 The moon is shining bright
		    G
The mood is feeling right
		      F#m
I'll kiss you on your neck
	     G                 D
People will stare but we won't care
		     A
We're high above the ground
		    G
We're nowhere to be found
	      F#m
Empowered by adrenaline
     G               Em
Feel I've been born again
	      G
Again, I am repeating myself
    Bm A          G
And I  know it is kind for you
   A(hold)
To sit and pretend


Chorus:
D        A                    G
  Damn regret, I'll try to forget
       	     Bm             A     D
Don't worry about me 'cause I'm refined
        A                    G
Cast my line to see what's behind
		       Bm          A
Did you think you'd persuade me to let you go?


Verse 2:
D                      A
  I'm wishing you were here
		  G
My weakness is my fear
	     F#m
Alone I am myself
          G              D
No reason left for me to care
		  A
Distracted by the sound
		      G
I hear footsteps all around
	      F#m
Empowered by adrenaline
     G               Em
Feel I've been born again
	      G
Again, I am repeating myself
    Bm A          G
And I  know it is kind for you
   A(hold)
To sit and pretend


(Repeat Chorus)


Bridge:
Bm                      G
  You're the only one I turn to
D                           A
  When I feel like no one's there
Bm			    G
  And when I'm lonely in my darkest hour
A
You give me the power To sit and pretend


(Repeat Chorus)


Outro:
D                   A
  Did you think I'd forget?
		     G
Did you think I'd surrender myself
      Bm           A
to persuade you to let me go?
(Repeat)


D--Bm-A

______________________________________________________________

8.) Atrophy

Key: Bb Similar to FACE DOWN

Tuning: Standard EADGBe or Drop D

Chords used: for Standard EADGBe
Gm - 355333
Eb - x68886
Bb - x13331
F -  133211
Cm - x35543

Chords used: for Drop D
G5 -  555xxx
Eb5 - 111xxx
Bb5 - x133xx
F5 -  333xxx
C5 -  x355xx


Intro:
Gm
  Don't tell me this is your
     Eb        Gm
last chance to change
Cuz if you do, you would
be


Growl:
Eb Eb   Eb Gm        F
telling a  lie!!! but


Verse 1:
Gm
  I warned you
     F     Eb
What could happen if
you should decide
   Cm
To live your life
     F
from 9 to 5
Gm
  And I mourn you
    F   Eb
For the detail that
is left unsaid
     Cm
Is a reminder of
    F
the time you bled


Chorus:
Gm          F
  Return to days when you knew
Eb              F
you still felt alive
Gm           Bb
  Reveal the way you felt when
Eb               F
You could look inside


After Chorus Riff:
e|---------------|
B|---------------|
G|-3-2---2-5-3-2-|
D|-----3---------|
A|---------------|
E|---------------|


Verse 2:
Gm
  They sold you
   F Eb
Everything you need
to fix you up
        Cm
And you feel good now
        F
but you can't wake up
Gm
  They found a way
to reassure you


Growl: That everything
         F Eb
would be o-kay

                         Cm
Reach out today now I implore
         F
you to remember who you are


(Repeat chorus)


Bridge: Silence
Gm       F
  So you felt it
        Eb
but you don't know
        F
Why you can't
explain at all
Gm        F
  Why you felt it
        Eb
Cuz you don't know
       F(hold)
no you don't know


Distortion:
Gm
Break the walls
        F
between building atrophy
Eb
Causing all your
F
problems to recede
Gm                 Bb
Break the walls between
(Break the walls between)
Eb               F
Causing all your pain
(Causing all your pain)
             Bass line
You'll never learn


(Repeat Chorus)


Outro: Repeat the Bridge distortion


2nd voice: while singing the outro

Take Back
The beat in your heart
Why Fight
When you can't be bought
(Repeat x4)


Gm---Eb---Gm---Eb-Eb-Eb

_____________________________________________________________

9.) 17 Ain't So Sweet

Key: C

Tuning: Standard EADGBe

Chords used:
C -   x32010
G -   320003
Am -  x02210
F -   133211
Dm -  xx0231
Em -  022000
G/B - x2x003


Intro: Am--G


Verse 1:
Am         C             F
  Well she never was the best
                  G   Am
Yeah at following the trends
            C             F
Stayed one step above the rest
    Dm             Am
And even though it seemed
         C                     F
Like the world was crashing on her
G               Am
  Didn't let it hold her down
       C
Didn't hold her back
   F  G(hold)
Oh no woah


Chorus:
C             G/B
  Don't worry you'll show them
          Am
There's a fire in your eyes
      G
And I hope you'll let it burn
           Am
There's a scream in your voice
      G
And I hope you will be heard
C         F
There's a fire in your eyes
      G
And I hope you'll let it
                  Am
burn until you're heard
       G
You're heard


Verse 2:
Am     C              F
  Seventeen is just a test
                   G  Am
Yeah and I would recommend
         C              F
That you live with no regrets
    Dm         Am
And even if it seems
         C                 F
Like the world is crashing on you
G                      Am
  You shouldn't let it hold you down
          C
Shouldn't hold you back
   F    G(palm mute)
Oh no woah


(Repeat Chorus)


Bridge:
F
  Relax girl
G               Am
  Turn down the lights
           C
No one can see you shining
F
  Relax girl
G            Am
  It'll be alright
            C
No one can stop
you if you try
F
  Point of rhythm is
    G             Am
the fall await in time
To listen to the
C               F
beating in your mind
                G
Remember if you seek
               Am    C(hold)
then you shall find Woah


Outro:
          Am
There's a fire in your eyes
      G
And I hope you'll let it burn
           Am
There's a scream in your voice
      G
And I hope you will be heard
C         F
There's a fire in your eyes
      G
And I hope you'll let it
                  Am
burn until you're heard
       G
You're heard
(Repeat twice)

_______________________________________________________

10.) Justify

Key: Eb

Tuning: Standard EADGBe

Beat: 3/4

Chords used:
Cm7 -  x313xx or x35343
Cm -   x35543
G# -   466544
Bb -   x13331
Gm -   355333


Intro: x means palm mute

Guitar 1: x2
      Cm7
      x4             x4
e|-------------|-------------|
B|-------------|-------------|
G|---------3-3-|---------3-3-|
D|---1-0-1-----|---1-0-1-----|
A|-3-----------|-------------|
E|-------------|-4-----------|
   x x x x x x   x x x x x x


Guitar 2: Cm--G#--Bb--


Verse 1: Do intro riff
Cm7
Once there was a time
when we could learn
G#
all the simple pleasantries
a follower should yearn
    Cm7
now all that I can do
is watch them burn
    G#
and wish that I could
save them all, or just one


Refrain:

Growl:
Cm
See the Fake

Sing:
         G#
everyday shaking
hands of men, promising the end

Growl:
Cm
Hear Him Speak

Sing:
                  G#
of all the things that we
need to hear to adhere


Bass Lines: in refrain
G|---------------3-------0---3-------0---3---5---------------8---|
D|-----------------1-0-1---1---1-0-1---3---5---3-1-3-----1-3---8-|
A|-3--3--3--6-5--------------------------------------1-3---------| x2
E|---------------------------------------------------------------|


Chorus 1:
Cm
Justify, your secrecies
Bb          Eb
that surmise your cries
  Bb
I see the way you
look around the bend
               G#   Bb
is it going to end, when?


Interlude: Cm--


Verse 2: Do intro riff
    Cm7
The visions that I've
seen have left me torn
   G#
between the resurrection
and the prophecy unborn
  Cm7
I think that I will
document the fall
    G#
and say I hate to say it
but I told you all


(Repeat Chorus 1)


Chorus 2:
Cm
Justify, your secrecies
Bb          Eb
that surmise your lies
  Bb
I see the way you
look around the bend
               G# Bb
is it going to end


Bridge:
Cm           Bb
  Your side, choose wise
G#     Fm
  your side
Cm                Bb
  Watch me change in time
G#                 Bb
  When you whispher
Cm              Bb
  Used to blame it's my
G#(hold)
message clearer


Guitar 2:
         Cm             Bb         G#               Gm
e|-------------------|-------|--------------|-3----------------|
B|-----4-----3-----4-|-----4-|-----4-----4--|---6-4-6--4h6p4---|
G|---5-----5-----5---|---3---|---5-----5----|----------------5-|
D|-------------------|-------|--------------|------------------|
A|-3-----3-----3-----|-1-----|--------------|------------------|
E|-------------------|-------|-4-----4------|------------------|

      Cm                Bb        G#          Bb
e|---3-------3-----3-|----3-|-----6-----6-|-----6---|
B|---4---3---4-----4-|3---4-|---4---4---4-|---4-----|
G|-----3---3-----3---|--3---|---------5---|---------|
D|-------------------|------|-------------|---------|
A|-3-----------3-----|------|-------------|---------|
E|-------------------|------|-4-----------|-6-------|

      Cm                Bb   G#
e|---3-------3-----3-|----3-|-6-|
B|---4---3---4-----4-|3---4-|-4-|
G|-----3---3-----3---|--3---|-5-|
D|-------------------|------|-6-|
A|-3-----------3-----|------|-6-|
E|-------------------|------|-4-|


Bass:
          Cm            Bb         G#              Gm
G|-------------------|-------|-------------|-0--------------|
D|-------------------|-------|-------------|---3-1-3--1h3---|
A|-3-3-3-3-3-3-3-3-3-|-1-1-1-|-------------|--------------3-|
E|-------------------|-------|-4-4-4-4-4-4-|----------------|

          Cm            Bb              G#
G|-------------------|-------|-------------------------|
D|-------------------|-------|-------------------------|
A|-3-3-3-3-3-3-3-3-3-|-1-1-1-|-------------------------|
E|-------------------|-------|-4-4-4-4-4-4-4-4-4-4-4-4-|

          Cm            Bb     G#
G|-------------------|-------|---|
D|-------------------|-------|---|
A|-3-3-3-3-3-3-3-3-3-|-1-1-1-|---|
E|-------------------|-------|-4-|

(Repeat Chorus 1 and 2)

___________________________________________________

11.) Your Guardian Angel

Key: F

Chords used:
F -  133211
C -  x32010
Dm - xx0231
Bb - x13331


Intro
F--C--Dm--Bb-C

Verse 1:
F      C         Dm
When I see your smile
Bb                F      C     Dm     Bb
Tears run down my face I can't replace
F                              C
And now that I'm stronger I've figured out
         Dm                   Bb
How this world turns cold and breaks through my soul
      F         C         Dm              Bb
And I know I'll find deep inside me I can be the one


Chorus:
F            C
I will never let you fall
Dm                        Bb
I'll stand up with you forever
F                     C
I'll be there for you through it all
Dm                 Bb
Even if saving you sends me to heaven


Post chorus:
F       C        Dm       Bb
  It's ok. It's ok. It's ok.


Verse 2:
F
Seasons are changing
    C
And waves are crashing
    Dm                Bb
And stars are falling all for us
F                    C
Days grow longer and nights grow shorter
  Dm                Bb
I can show you I'll be the one


Guitar 2: While doing Verse 2
e|---5-----5---|---5---6-5---|
B|-----6-8---6-|-----6-----6-|
G|-5-----------|-5-----------|
D|-------------|-------------|
A|-------------|-------------|
E|-------------|-------------|
       x3

e|---5-----5---|---5---6-5---|-8-|
B|-----6-8---6-|-----6-----6-|---|
G|-5-----------|-5-----------|---|
D|-------------|-------------|---|
A|-------------|-------------|---|
E|-------------|-------------|---|
       x3


(Repeat Chorus)


Bridge:
    F          C
Cuz you're my, you're my
Dm
my true love, my whole heart
Bb                       C
Please don't throw that away
    F        C
Cuz I'm here for you
Dm
Please don't walk away,
Bb                     C
Please tell me you'll stay, stay

F--C--Dm--Bb-C


Verse 3:
F             C
Use me as you will
         Dm                 Bb
Pull my strings just for a thrill
F                   C
And I know I'll be ok
          Dm                 Bb
Though my skies are turning gray


(Repeat Chorus twice)

___________________________________________________________

12.) The Grim Goodbye

This is the most kickass RJA song!!! that has a length of 7:40, so long!!!
I'm going to cover this song and post it on youtube!!! this song is originally
played in Drop C. I just converted it to Standard EADGBe for the lazy people
who are too lazy to tune their guitars. Sounds decent too!!! Their Lead Guitarist
named ELIAS used different MeTALLIC EFECTS in this song, I tabbed them too!!!


Key: Eb

Beat: 3/4

Tuning: Standard EADGBe

Chords used:
Cm -   x35543
G# -   466544
Eb -   x68886
Bb -   x13331
Gm -   355333
Fm -   133111
Bb/D - x587xx
G -    355433


Intro:

Silent: x4
                 Cm
e|----3------------3-----3------6-----6-|
B|-----------3--------------------------|
G|--------5-----5------------5-----5----|
D|------5------------------5------------|
A|-3------------------3-----------------|
E|--------------------------------------|

                                Distortion Part
e|----3------------3-----3----|-----------------|
B|-----------3--------------4-|-----------------|
G|--------5-----5-------------|-5---5-----------|
D|------5---------------------|-5---5-----------|
A|-3------------------3-------|-3---3-----------|
E|----------------------------|-----------------|


Distortion: Cm--Cm-- x4
e|-----------------|
B|-----------------|
G|-5---5-----------|
D|-5---5-----------|
A|-3---3-----------|
E|-----------------|


Cm
Whoaa
Cm
whoaaaaaa my eyes
          Fm            Cm
Whoaaaaaa close it today


Cool Metallic Riff 1: after "today" b means bend
E|-15b-
B|-----
G|-----
D|-----
A|-----
E|-----


Pre Verse:
Cm-Cm-Gm-Eb                         Cm-Cm-Gm-Cm
           Don't you try to take me down
                          Cm-Cm-Gm-Eb
don't you try to take me over
                          Cm-Cm-Gm-Cm
won't you try to break me?


Verse 1:

Clean:
Cm                 G#
  The complexities moving in
Eb
  and I feel that I do
    Bb/D      Cm
not have the strength
          G#
tragedies plaguing me solemnly
Eb                     (metallic riff 2)
  Its affecting my will


Metallic Riff 2: ~ means hold
e|-8~-
B|-8~-
G|-8~-
D|----
A|----
E|----


Distortion:
     Cm                 G#   (metallic riff 3)
Then Wait now that I've found you
Eb                         Bb/D      Cm
  situations from dark now change to gray
                G#
Disregarding my absence of memories
Eb                               Bb/D
  its perpetually blinding me of sanity
Cm                  G#
  and just when I'm giving in
Eb              Bb/D      Cm
  as I try to scale these walls
        G#     (metallic riff 4)
Jericho falls around me
Eb                                 Bb/D
  and I feel that I've strayed too long


Metallic Riff 3: tr means tremolo effect
e|--------11tr-|
B|-8h9--8------|
G|-------------|
D|-------------|
A|-------------|
E|-------------|

Cool Riff: at "memories"
e|-1-----------|
B|-----4---1---|
G|---3---3---3-|
D|-------------|
A|-------------|
E|-------------|

Cool riff: at "and just when I'm giving in" Palm muted
e|-------------|
B|-------------|
G|-------------|
D|-8-6-5-------| x8
A|-------8-6-5-|
E|-palm-mute---

Metallic Riff 4:
e|-------6tr-|
B|-4--3------|
G|-----------|
D|-----------|
A|-----------|
E|-----------|

Refrain:

Silence:
Cm                Eb
  And darkness is fading in
Cm                Eb(palm mute)
  and darkness is real


Silence Riff:
       Cm             Eb           Cm            Eb
e|-------------|---------3---|-------------|-------------|
B|-------4-----|---4---4---4-|-------4-----|-------------|
G|-5---5---5---|-3---3-------|-5---5---5---|-8--8-8--8-8-|
D|---5-------5-|-------------|---5-------5-|-8--8-8--8-8-|
A|-------------|-------------|-------------|-6--6-6--6-6-|
E|-------------|-------------|-------------|-palm-mute---|
       x2             x2           x2


Chorus 1:
Cm G# Eb Gm
Ohhhhhh
Cm G# Eb     Bb/D
Ohhhh my eyes
Cm G# Eb Gm
ohhhhhhh
Cm       G#
closing slowly
       Eb  Bb/D (metallic riff 5)
Growl:   I try


Metallic riff 5:
E|-14h15tr-14h15tr-|
B|-----------------|
G|-----------------|
D|-----------------|
A|-----------------|
E|-----------------|


Interlude: Cm
e|------|-------------|--------3~-|
B|----4-|-------------|----4------|
G|-5--5-|-------------|-5--5------|
D|-5--5-|-8-6-5-------|-5--5------|
A|-3----|-------8-6-5-|-3---------|
E|------|-palm-mute---|-----------|

e|------|-------------|--------8~-|
B|----4-|-------------|----4---8~-|
G|-5--5-|-------------|-5--5------|
D|-5--5-|-8-665-------|-5--5------|
A|-3----|-------8-6-5-|-3---------|
E|------|-palm-mute---|-----------|


Verse 2:
Cm            G#      (metallic riff 3)
Fate seems to recreate
Eb                   Bb/D (metallic riff 6)
I just can not escape
Cm                 G#
Something holds me down and
         Eb
makes me act a way
          Bb/D
I can't explain
Cm               G#
  Even now I can feel it
       Eb
coming over me choking me
       Bb/D      Cm
as I'm falling behind
        G# (metallic riff 4)
You can say you know me
Eb
  but you have no clue what
                Bb/D
my dreams could show you


Metallic Riff 3: at "recreate"
e|--------11tr-|
B|-8h9--8------|
G|-------------|
D|-------------|
A|-------------|
E|-------------|

Metallic Riff 6:
e|---------------|
B|-3h4---3---1---|
G|-----3---3---3-|
D|---------------|
A|---------------|
E|---------------|

Cool Riff: at "makes me act a way"
e|-1-----------|
B|-----4---1---|
G|---3---3---3-|
D|-------------|
A|-------------|
E|-------------|

Cool Riff: at "Even now..."
e|-------------|
B|-------------|
G|-------------|
D|-8-6-5-------| x8
A|-------8-6-5-|
E|-palm-mute---

Metallic Riff 4: at "you know me"
e|-------6tr-|
B|-4--3------|
G|-----------|
D|-----------|
A|-----------|
E|-----------|


(Repeat Refrain and Chorus 1)


Refrain 2: Do Refrain 1 silence riff


Growl:
Cm Eb Cm
      I
Eb Cm
   Can't
Eb Cm                        Eb (metallic riff 7)
   Can't win tell me who you see


Metallic Riff 7:
E|-10btr-
B|-------|
G|-------|
D|-------|
A|-------|
E|-------|


Cm                Eb
  I feel something deep inside me
Cm              Eb
  I feel deep inside


Bridge:
Cm
  I feel something deep inside me
Eb                     Gm
  and I can't let this go whoa
Cm
  I feel something deep inside me
Eb                     Gm
  and I can't let this go whoa (growl)
Cm                    Eb
Lie as I try to steer clear
      Gm
and I try to stay sober
Cm                  Eb
  This is taking me over
       Gm
And my dreams complicate it


Growl:
Cm                        (metallic riff 8)
  I just can not let this go
Cm                              (metallic riff 8)
  I tried so many times to tell you
                          G#
I just I can not let this go
Bb     G#      G(hold)
I just can not win


Metallic Riff 8:
e|-----------|
B|-----------|
G|-3-4-3-----|
D|-5-6-5-0-1-|
A|-------1-3-|
E|-----------|


Cool Riff: at "go I just..."
     G#      Bb      G#    G
e|-------|-------|-------|---|
B|-------|-------|-------|---|
G|-----3-|-----5-|-----3-|---|
D|---1---|---3---|---1---|-5-|
A|-------|-------|-------|-5-|
E|-4-----|-6-----|-4-----|-3-|


Interlude:

Silence: up to Verse 3
        Cm           Bb
e|-------------|-------------|
B|-------------|-------------|
G|-------------|-------------|
D|-1---1---1---|-0---0---0---| repeat many times
A|---3---3---3-|---1---1---1-|
E|-------------|-------------|


Bass Line: while doing interlude
G|------------------|
D|-1h3--1--0--------|
A|-----------1--1h3-|
E|------------------|


Verse 3:
    Cm
See you
I see you falling away
          Bb(hold)
I see you you
Killing me soflty
Cm
  I see you you falling
away I see you you


Bass Line: while doing verse 3, do it twice
G|-------0--1--0-----0----------0--1-|
D|----1-----------3-------1--3-------|
A|-3-------------------3-------------| x2
E|-----------------------------------|

G|-------0---1--0-----0--------------------|
D|----1------------3--------1--3--1--0-----|
A|-3---------------------3--------------1~-|
E|-----------------------------------------|


Guitar 3: While doing Verse 3, do it twice
e|-3-----------------3--------6-------|
B|----4-----3--4--------4--------4----|
G|-------5--------3--------5--------3-|
D|------------------------------------| x2
A|------------------------------------|
E|------------------------------------|


Verse 4:
Cm        Eb         Cm         Eb
Don't take what's in front of me
     Cm          Eb      Cm        Eb
open eyes can see I have everything
         Cm        Eb         Cm       Eb
Tell you don't take what's in front of me
         Cm        Eb         Cm Eb
tell you don't take what's in me


Guitar 2: While doing Verse 4, do it twice
       Cm            Eb
e|-------------|-------------|
B|-------------|-------------|
G|-------------|-8-8-8-8-8-8-|
D|---0-1-3-1-0-|-8-8-8-8-8-8-| x2
A|-3-----------|-6-6-6-6-6-6-|
E|-palm mute---|-palm mute---|

       Cm            Eb
e|-------------|-------------|
B|-------------|-------------|
G|-----0-3-1-0-|-8-8-8-8-8-8-|
D|-1-3-1-3-1-0-|-8-8-8-8-8-8-| x2
A|-3-5---------|-6-6-6-6-6-6-|
E|-palm mute---|-palm mute---|


Interlude:

Silence: Cm
e|-3--3--3-|-6--6--6-|
B|-4--4--4-|-4--4--4-|
G|-5--5--5-|-5--5--5-|
D|---------|---------|
A|---------|---------|
E|---------|---------|
     x3


Chorus 2:

Growl:
Cm G#
Lie
Eb Gm        Cm  G#
   which one lied
       Eb      Bb/D   Cm G#
When I feel it come a way
Eb Gm
way  ohhh
Cm G#           Eb  Bb/D
   that's why I try lie


Interlude:
       Cm
e|-------------|
B|-------------|
G|-5-5-5-5-5-5-|
D|-5-5-5-5-5-5-| repeat many times
A|-3-3-3-3-3-3-|
E|-palm mute---


Crowd singing: Cm
e|-------------------------|
B|---1-1-1-1-1-4-3-1-1-1-1-|
G|-3-----------------------|
D|-------------------------|
A|-------------------------| repeat many times
E|-------------------------|


Verse 5:
Cm
  I see you coming my way
dreams may fall more everyday
                     (metallic riff 9)
I see you looking my way


Metallic riff 9:
e|-10--10--10--11tr-|
B|------------------|
G|------------------|
D|------------------|
A|------------------|
E|------------------|


Growl:
         Cm   G#       Eb       Gm
And I've tried just to separate dreams from
  Cm   G#        Eb           Bb/D
reality watch to satisfy this wanting
Cm G#          Eb        Gm
   Try to stay righteous try to
     Cm    G#       Eb(hold)   Bb/D
stay sober but then I can't win


Outro:

Silence:
Cm Eb      Cm      Eb
     And I know you and I
Cm      Eb     Cm
know you and I know you


Growl:
Cm
Lie


Silence Riff:
       Cm             Eb
e|-------------|---------3---|
B|-------4-----|---4---4---4-|
G|-5---5---5---|-3---3-------|
D|---5-------5-|-------------| x4
A|-------------|-------------|
E|-------------|-------------|
       x2             x2


Pre Growl:
e|------------|
B|-3--4--3--4-|
G|------------|
D|------------| x4
A|------------|
E|------------|


Growl:
e|---
B|---
G|-5-
D|-5-
A|-3-
E|---

__________________________________________________________

13.) Love Seat

Key: C

Tuning: Standard EADGBe

Chords used:
C -   x32010
G/B - x2x003
Am -  x02210
F -   133211
G -   320003


Intro: C--Am-- x2


Bass Line:
        C              Am
G|--------------|--------------|
D|--------------|------------2-|
A|-3-3-3-3----3-|-0-0-0-0--0---| x2
E|----------3---|--------------|


Verse 1:
C                   Am
  My love's like an arm chair
     C
It's inclined to recline
Am                          C
  And sweep you off of your feet
                Am
My structure is perfect
           C
There's no flaw in design
Am                 F
  A decent buy for you
        C  G              C
There's no rest for a luxury
F         C  G
  There's no rest for me


Chorus:
C
  Her eyes are watering
G/B
  I said we're better
         F
off this way Things change
              G
Its happening everyday
C
  He'll come and take my place
G/B
  And show you things that
                F
I just couldn't face
We'll sit and sing a song
   G
Of what we did wrong


Bass Line: while doing Chorus
          C                   G/B             F         G
G|------------0h2p0-|----0---------------|---------|---------|
D|----2-------------|------------5-3p2h3-|---------|---------|
A|-3-----3----------|-2-----2--2---------|---------|---------| x2
E|----------3-------|--------------------|-1--1--1-|-3--3--3-|


Verse 2:
C              Am
  Now that I'm used up
       C
And my arms start to fade
Am                 C
  You can pay to upgrade
             Am
Or you can replace me
    C
Finalize my demise
Am                   F
  A new surprise for you
        C  G              C
There's no rest for a luxury
F         C  G
  There's no rest for me


Guitar 2: in "upgrade"
e|-------8--------|
B|-5---5----5h6p5-|
G|----------------|
D|----------------| x4
A|----------------|
E|----------------|


(Repeat Chorus)


Bridge:
Am
  Don't tell me the
C
worst is over now
F
  Don't tell me what I
can see with my eyes
Am
  Don't tell me the
C
worst is over now
F
Bend my will again
     G
Then mend it straight


Guitar 2: while doing Bridge
e|-----3---1-0---3-1-0-------|
B|-1-1---1-----1-------3-1---|
G|-------------------------0-|
D|---------------------------|
A|---------------------------|
E|---------------------------|


(Repeat chorus)


Outro:
C
  And maybe Ill regret you
G/B
  And maybe Ill regret you
F
  And maybe Ill regret you
    G
Its all in my mind
All in my mind
(Repeat)


Bass Line: while doing outro
         C                 G/B                F               
 G
G|-----------------|-----------------|-----------------|-------7-9-7-5-7-|
D|---------5-3-2-3-|---------5-3-2-3-|---------3-3-3-3-|-----5-----------|
A|-3-3-3-3---------|-2-2-2-2---------|-------3---------|---5-------------| x2
E|-----------------|-----------------|-1-1-1-----------|-3---------------|


End on C

_______________________________________________________

14.) Disconnected

Key: C

Tuning: Standard EADGBe

Chords used:
G -  320003
Am - x02210
F -  133211
C -  x32010
Em - 022000


Intro: G--Am--F x2

Lead:
        G            Am         F
e|---------------|---------|------------------|
B|-------1--0----|-1--0----|------------------|
G|-0-0-0-------0-|-------2-|-------0----------|
D|---------------|---------|-2--3-----3--2----|
A|---------------|---------|----------------3-|
E|---------------|---------|------------------|

       G        Am             F
e|---------|---------|-3-3-3-3-3-3-3-8-8-8-8-|
B|-1--0----|-1--0----|-----------------------|
G|-------0-|-------2-|-----------------------|
D|---------|---------|-----------------------|
A|---------|---------|-----------------------|
E|---------|---------|-----------------------|


Verse 1:
G     Am            F
  You know that you are
              F   G       Am
the center of my attention
        F                 C
and you leave me no choice
G          Am        F
  Tripping on to the floor
                G       Am
looking at my reflection
     F                   Em   F
as I follow the chord to your voice
      F        G
as it rings on through
Em   F               F
your voice clearly receptive
         G
like the day we met I knew


Chorus:
C                  G
  Don't hang up on me, cause
               F
I'm hung up on you
                     G
don't tell me how to feel
like you always do
C               G
  I know you're right
                F
I don't want to fight
                      G
is this how our story ends
or a new chapter begins?


Verse 2:
G        Am
  As the days roll by
      F
can't help myself
             C      G
just sit and wonder why
                   Am
was it something I said
            F
something I did my girl?
G             Am         F
  Your wilted roses make me cry
                        G      Am
a sentimental sign of rejection
     F                   Em   F
as I follow the chord to your voice
      F        G
as it rings on through
Em   F               F
your voice clearly receptive
         G
like the day we met I knew


(Repeat Chorus)
(Repeat Intro)
(Rpeat Chorus twice)

________________________________________________

15.) 20 Hour Drive

Key: C

Tuning: Standard EADGBe

Chords used:
F -   133211
C -   x32010
G -   320003
Am -  x02210
Dm -  xx0231
Em -  022000
G/B - x2x003


Intro: F--C-G--Am x4

Yeah!


Verse 1:
F          C        G
  Now it's falling around you
F            C      G
  pickup the pieces you know they wont fit
F                C                 G
  tear drops are falling down like rain
ocean water around you
F          C             G
  I see it coming round again, I know


Refrain:
Em      F      Em            G   Am
  now I realize that I'll be fine
    G/B(hold)
and I'll forget you


Chorus:
C               G
  Will you ever learn
             Am
that there's more to life
     F
than helping yourself?
     C              G
will I reach out my hand
         Dm
and stop you from falling
       F                G
which starts this over again


Verse 2:
F                   C                G
  This time there's no where left to talk
as I run down the boardwalk
F             C              G
  trying hard to forget your face I know
F              C                 G
  wish I could finally find the strength
to open up your letters
F               C               G
  I think, I'll throw them all away instead


(Repeat Refrain and Chorus)


Bridge:
F               C             G 
  Don't know if I can bring myself
to open up your letters
F            C               G
  maybe I'll throw them all away
forget you all together
F              C               G
  know now I'm waiting back at home
F              C               G
  know now I'm waiting back at home
                        F      C G
and I am starving for affection
  F      C G
affection....... 
(Repeat)


Outro:
F          C        G
  Now it's falling around you
F            C      G
  pickup the pieces you know they wont fit

_________________________________________________

16.) Kins And Carolls

Key: C

Tuning: Standard EADGBe

Chords used:
C -   x32010
G/B - x2x003
Am -  x02210
G -   320003
F -   133211


Intro: F-G-C x2

Guitar 2:
e|----------------|
B|----------------|
G|-10-10-10-9-9-9-|
D|--x--x--x-x-x-x-|
A|--8--8--8-7-7-7-|
E|----------------|


then: C-C-C-G/B


Verse 1:
C                             G/B
  I sit around and think about
Am
  all the times we shared
F   G   C
all the time                 G/B
I wonder what you dream about
Am 
  Where you go and have been
F   G   C
all the time
C                   G/B
  You broke my heart
Am
  You broke my heart again
F           G
  and now i know


Chorus 1:
Am                 G
  If this is a test i'm
                 F
gonna fail it my best
                 C
the only way to stay true
Am               G
  And this is my destiny
                F
and there is no helping me
C          G/B    
life is bitter sweet 


Verse 2:
C
  Things change although
                  G/B
they seem the same
Am
  and there'll be no more
        F   G    C
waiting for your lies
I found someone
                  G/B
else just like you
Am
  and now it's 
starting to unwind
F   G   C
all the time
             G/B
We fell apart
Am
  you broke my heart again
F           G
  and now I know


Chorus 2:
Am                 G
  If this is a test i'm
                 F
gonna fail it my best
                 C
the only way to stay true
Am               G
  And this is my destiny
                F
and there is no helping me
C          G/B    
life  better sweet. 


Bridge:
Am             F
  You say it's time to
             C
get over the pain
        G
I still I still love her
Am             F
  You say it's time to
             C
get over the pain
        G
I still I still love her
Am F C G
  Yeah yeah
I still love her


(Repeat Chorus 1)


Outro:
Am             G
  You say it's time to
             F
get over the pain
        C
I still I still love her
(Repeat)


Am-G


F       C(hold)
I still love her

__________________________________________________

17.) Angels Cry

Key: C

Tuning: Standard EADGBe

Chords used;
C -   x32010
C/E - 032xxx
F -   133211
G -   320003
Am -  x02210


Intro:
Guitar 1:
       C              C/E           F
e|-------------|-------------|-------------|
B|-------------|-------------|-------------|
G|-------------|-------------|-------------|
D|-----2---2---|-----2---2---|-----2---2---| x4
A|-3-3---3---3-|---3---3---3-|---3---3---3-|
E|-------------|-0-----------|-1-----------|
       x2


Guitar 2: will enter at 3rd time to 4th time synch to guitar 1
              C                 C/E           F
e|-------------------------|-------------|-------------|
B|-------------------------|-------------|-------------|
G|-----0-------------------|-----0-------|-----0-------|
D|---------3---2---3---2---|---------2---|---------2---|
A|-3-3---3---3---3---3---3-|---3-------3-|---3-------3-|
E|-------------------------|-0-----0-----|-1-----1-----|

              C                 C/E           F
e|-----------------0---0---|-------------|-------------|
B|-----1---0---3-----------|-----0-------|-----1---0---|
G|-------------------------|---------2---|-------------|
D|-------------------------|-------------|-------------|
A|-3-3---3---3---3---3---3-|---3-------3-|---3-------3-|
E|-------------------------|-0-----0-----|-1-----1-----|


Verse 1:
C                    C/E
  Well its hard to explain
         F          C     C/E F
but Il'l try if you let me
C                     C/E
  Well its hard to sustain
     F          C     C/E F
I'll cry if you let me
     C
This doesn't change the way i feel
 C/E              F           C
about you or your place in my life
        C/E   F
(please don't cry)
C                              C/E
Can't you see I'm dying here a shot of
       F             C                C/E F
broken heart that is chased with fear?


Chorus:
C
Angels cry
      Am
when stars collide
        G
I can't eat
and I can't breathe
F
  I wouldn't want it
    G
any other way


Interlude:
       C              C/E           F
e|-------------|-------------|-------------|
B|-------------|-------------|-------------|
G|-------------|-------------|-------------|
D|-----2---2---|-----2---2---|-----2---2---|
A|-3-3---3---3-|---3---3---3-|---3---3---3-|
E|-------------|-0-----------|-1-----------|
       x2

       C              C/E           F
e|-------------|-------------|-------------|
B|-------------|-------------|-------------|
G|-------------|-----0-------|-----0h2p0---|
D|-----2---2---|---------2---|-------------|
A|-3-3---3---3-|---3-------3-|---3-------3-|
E|-------------|-0-----0-----|-1-----------|
       x2


Verse 2:
  C
Intentions that were
                    C/E
pure have turned obscure
F            C
seconds into hours
                  C/E
minutes into years
F            C
Don't ask me why
        C/E   F
(please don't cry)
        C            C/E F
I can't tell you lies


(Repeat Chorus twice)


Bridge:
C       C/E F C     C/E    F
My heart      burns through
C       C/E F C             C/E F
My chest        to the floor
C
Tearing me silently
although abruptly
Am
words cant hide as I'm
taking you home
      G
and I tried to see
                F
tried to understand your
             G
words as I'm taking you home


(Repeat Chorus Twice)

_____________________________________________

18.)  Home Improvement

Key: B

Tuning: Drop D

Chords used: Drop D only
B -     x244xx
F#/Bb - x143xx
Ebm -   111xxx
B/Eb -  121xxx
E -     222xxx
F# -    444xxx
G#m -   666xxx


Chords used: Standard EADGBe
B -     x24442
F#/Bb - x143xx
Ebm -   x68876
B/Eb -  x698xx
E -     022100 or 079900
F# -    244322
G#m -   466444


Intro: B---Ebm--E-F#


Verse 1:
B
  A silhouette waits outside my window
F#/Bb                                  Ebm
  I jump up and I shout to see if your there
                    E             F#
There's nothing but cold sharp air
B
  And I wake up, another day without you
F#/Bb
  Take a breath from cigarettes
               Ebm
I got time to spare, its
            E              F#
better when you're not here


Chorus:
B       F#
Say you love me, you can
B/Eb         E
lie if it is comforting and I
B            F#
  Won't even mind it so bad
B/E          E
  won't even find it so sad
B               F#
Please see that I've changed I
B/Eb                    E
sealed the cracks in my window panes
     B            F#
And I, won't even mind it
      B/Eb        E
so bad won't even find it so sad


Guitar 2: in "won't even..."
e|-------
B|---4---
G|-4---4-
D|-------
A|-------
E|-------


Verse 2:
B
  I'm not sick I'm not
                    F#/Bb
weird I'm simply in love
You must try to understand
                    Ebm
you were sent from above
You say you hate me well that's
     E
just fine I will wait
         F#  
till the end of time

(Repeat Chorus)


Interlude: B-F#-B/E-E x2


(Repeat Chorus)


Outro:
B                   F#
  Loving you is the only thing I ever knew
B/Eb                E
  letting go is the hardest thing ill ever do
B              F#
  I don't even mind it so bad
B/Eb           E                B(hold)
  I don't even find it so sad today

_____________________________________________________

19.) Getting By

Key: F

Tuning: Standard EADGBe

Chords used;
F -   133211
C/E - 032xxx
Dm -  xx0231
Bb -  x13331


Intro: F--F


F--C/E-Dm--C/E-F--Dm-C/E(hold)


Verse 1:
F
  We're caught in a cross roads
       C/E
Me and my friends
Dm
  Just trying to figure out
                        C/E
Now what, to do with ourselves
F
  Working my day job
           C/E
I feel I'm selling out
Dm
  Steppin up to take my role
                  C/E
As a consumer and nothing else
F
  I can see the window closing
          C/E
On all of my dreams
Dm
  Should I stand and
watch them all fade out
          C/E
Except normality?


Refrain:
Bb
I...
                           F-C/E-Dm
I don't care about getting by
No...
   Bb
No I don't care about getting


Chorus:
F                           C/E
  Wasting I can't be found again
Dm                                C/E
  Wasting I know I'll see you someday
F                          C/E
  Wasting I know be found again
Dm                            C/E
  Wasting I know I'll see you someday


Interlude; F--C/E-Dm

Lead:
e|-1--0----------|
B|-------3--1--1-|
G|---------------|
D|---------------| x2
A|---------------|
E|---------------|


Verse 2:
F
  Now sit there and judge me
                    C/E
For the things that I say
Dm
  But you don't understand pain
               C/E
And I pity you anyway
F
  But for those of you who hear me
   C/E
We are strong
Dm
  So come and follow me
    C/E
Somewhere else


(Repeat Chorus)


Post Chorus:
Bb                            F-C/E-Dm
  I do not care about getting by....
(Repeat)


Interlude: Dm--


Bridge:
F     C/E Dm  C/E
Break me  down...
F     C/E Dm  C/E
Bring me  down...
F             C/E
Will you save us?
Dm            C/E
Will you save us?
F     C/E-Dm-C/E
Break!
Bb
I
I do not care, I do not care...
              F-C/E-Dm
About getting by
comments
We did not receive enough feedback on this tab! Please rate:
print report bad tab
1 2 3 4 5
1 comment total.
0 reply
Tomozaurus wrote on April 6 2008, 07:07 am

This tab is very wrong. All RJA songs are in Dropped C tuning, so that instantly thows your tabs all over the joint. Sorry. Its a good tab for standard tuning versions.

I want to post or [tab]
guest
You may want to rate the tab now too:
select rating
Please do not post tabs as comments. Select "correction" instead!