Oops, an error
Loading. Please wait.

Dont You Fake It Tab

11,493 views 9 this week
14 commentsread comments
1 2 3 4 5
accurate
x 14
add to favorites launch autoscroll
font size
0
reset
Autoscroll
+/-
esc
set tempo
stop
Contributor
WARNING: You are trying to view
                                    content from Ultimate-Guitar.com
                                    in an unauthorized application,
                                    which is prohibited.

                                    Please use an official Ultimate
                                    Guitar Tabs application for iPhone,
                                    iPad or Android to access legitimate
                                    chords, guitar, bass, and drum tabs
                                    from Ultimate-Guitar.com database.

                                    Type "ultimate guitar tabs" in Apple
                                    App Store's or Android Market's
                                    search to find the application.
Don’t you Fake it Album
The Red jumpsuit Apparatus

Tabbed by Allan’s dead

This took a long time to tab I hope you enjoy most, if not all the songs

1: In Fates Hands (Standard)
2: Waiting (drop D)
3: False Pretense (Standard)
4: Face down (Drop D)
5: Misery loves its Company (drop D)
6: Cat and Mouse (Chords)
7: Damn Regret (Standard)
8: Atrophy (Drop D)
9: Seventeen ain’t so sweet (Standard)
10: Justify (Drop C)
11: Your Guardian Angel (Drop C)
12: The Grim Goodbye (Drop C)

              ___
1: In Fates Hands

Intro: (no distortion) (0:00)
e---------------------|--------|
B---------------------|--------|
G-3-------3/7---------|--1212--|
D-5(x16)--5-8--6------|--x-x---|
A-3-------3/6--x(x16)-|--1010--|
E--------------4------|--------|
                      |dist.---|
Pre-Verse (now add distortion for the remainder of the song)(0:10)
e--------------------------------------|
B--------------------------------------|
G--3\5----\8/5----\3/5-----5----/-8----|
D--x-x(x4)-x-x(x4)-x/x(x4)-x(x4)--x(x4)|
A--1\3----\6/3----\1/3-----3----/-6----|
E--------------------------------------|

e---------------------------|
B---------------------------|
G--------------------12-----|
D-6-----6-----6------x-(x8)-|
A-x(x4)-x(x4)-x(x4)--10-----|
E-4-----4-----4-------------|

Verse (0:24)
(X2)  (0:33)
e------------------------------|
B------------------------------|
G--7/5----/7----/8----/12------|
D--x/x(x8)-x(x8)-x(x8)-x-(x8)--|
A--5/3----/5----/6----/10------|
E------------------------------|

Chorus (0:39)

e---------------------------------|
B---------------------------------|
G-5-----5------5-----5----/7------|
D-5(x4)-5x(x4)-5(x4)-5(x3)-7(x3)--|
A-3-----3------3-----3----/5------|
E---------------------------------|

e--------------------|
B--------------------|
G--------------------|
D-6-----6-----6------|
A-6(x4)-6(x4)-6(x4)--|
E-4-----4-----4------|

Post Chorus#1
(0:47)
e-----------------|
B-----------------|
G-5p3-------------|
D-----5p3---------|
A---------5p4p3p2-|
E-----------------|

Chorus (0:49)

Post-chorus#2 (0:56)
e----------------------|
B----------------------|
G--10b12(x4)-9~-15b17--|
D----------------------|
A----------------------|
E----------------------|

Pre-Verse (1:00)

Verse (x2) (1:14)
	   (1:24)

Chorus  	(1:29)
Post-chorus#1	(1:38)
Chorus		(1:40)
Post-chorus#3	(1:47)
e---------------|
B---------------|
G--10b12(x4)-9~-|
D---------------|
A---------------|
E---------------|

Bridge	(1:49)
e---------------------------|
B---------------------------|
G--5~-5/7/8~--8-3~-5/7/8~-7~|
D--x~-x/x/x~--x-x~-x-x-x~-x~|
A--3~-3/5/6~--6-1~-3/5/6~-5~|
E---------------------------|

(2:08)
e-------------------------------|
B-------------------------------|
G--5~-5/7/8~--8-3~-5/7/8~-7-8-5~|
D--x~-x/x/x~--x-x~-x-x-x~-x-x-x~|
A--3~-3/5/6~--6-1~-3/5/6~-5-6-3~|
E-------------------------------|

(Bass Line) (2:28)

Post-Chorus#1 	(2:36)
Pre-Verse 	(2:37)
Chorus		(2:46)
Post-Chorus#1	(2:55)
Chorus		(2:56)
Post-Chorus#4	(3:04)
e--------------|
B--------------|
G-12-----12----|
D-x-(x2)-x(x2)-|
A-10-----10----|
E--------------|

Bridge#2 (3:06)
e---------------------------------------|
B---------------------------------------|
G--5----/7----/8-----/10----/12----/13--|
D--x(x6)-x(x6)-x(x16)-x-(x8)-x-(x4)-x---|
A--3----/5----/6-----/8-----/10----/11--|
E---------------------------------------|

Outro (3:20)
e--------------------------------------|
B--------------------------------------|
G-5-----5-----5-----5-----4-----5------|
D-5(x4)-5(x4)-5(x4)-5(x2)-4(x2)-5(x3)--|
A-3-----3-----3-----3-----2-----3------|
E--------------------------------------|
_________________
2: Waiting(drop D)

Intro:
Lead
(-play twice------------------------------------------------------|
|-----------|----|----------|-------------------------------------|
|-----------|----|----------|-------------------------------------|
|--1212-1010|(x3)|-10101010-|-1414141414141414-1515151515151515---|
|--x-x--x-x-|----|-x-x-x-x--|-x-x-x-x-x-x-x-x--x-x-x-x-x-x-x-x----|
|--1010-8-8-|----|-8-8-8-8--|-1212121212121212-1313131313131313---|
|-----------|----|----------|-------------------------------------|

|---------------------|
|---------------------|
|-1717171717171717-19-|
|-x-x-x-x-x-x-x-x--x--|
|-1515151515151515-17-|
|---------------------|

Rhythm
|---------------------------------------------|
|---------------------------------------------|
|--------------55-----------------------------|
|-555555555555-55-333333333333--3-0/3-0/5-0/3-|
|-555555555555-33-333333333333--3-0/3-0/5-0/3-|
|-555555555555----333333333333--3-0/3-0/5-0/3-|

Verse (x2)
|-------------------------|----|-------------------------|----|
|-------------------------|----|-------------------------|----|
|-121212-1212121212121212-|----|-101010-1010101010101010-|----|
|-x-x-x--x-x-x-x-x-x-x-x--|(x4)|-x-x-x--x-x-x-x-x-x-x-x--|(x3)|
|-101010-1010101010101010-|----|-8-8-8--8-8-8-8-8-8-8-8--|----|
|-------------------------|----|-------------------------|----|
PM       . . . . . . . .                . . . . . . . .

Pre-chorus
|---------------|----|------------------|
|---------------|----|------------------|
|-121212-101010-|----|-1212121212121212-|
|-x-x-x--x-x-x--|(x2)|-x-x-x-x-x-x-x-x--|
|-101010-8-8-8--|----|-1010101010101010-|
|---------------|----|------------------|

Chorus (x2)
|---------------------------------------------|
|---------------------------------------------|
|--------------55--------------------------/7-|
|-555555555555-55-333333333333--3-0/3-0/3-3/7-|
|-555555555555-33-333333333333--3-0/3-0/3-3/5-|
|-555555555555----333333333333--3-0/3-0/3-3/--|

Post Chorus
Rhythm                      |this may be wrong--|
|-----------------------------------------------|
|-----------------------------------------------|
|----------------------------12-10--------------|
|-0-0-0-0-0-0-5-3-5-0-0-0-0--------12-10--10-8--|
|-0-0-0-0-0-0-5-3-5-0-0-0-0---------------------|
|-0-0-0-0-0-0-5-3-5-0-0-0-0---------------------|

Lead                        |this may be wrong--|
|--------------------------------------------8--|
|-----------------------------------------------|
|----------------------------12-10--------------|
|-0-0-0-0-0-0-5-3-5-0-0-0-0--------12-10--10----|
|-0-0-0-0-0-0-5-3-5-0-0-0-0---------------------|
|-0-0-0-0-0-0-5-3-5-0-0-0-0---------------------|

Verse (x2)

Chorus (x2)

Post-Chorus#2
|--------------------------------|
|--------------------------------|
|-7-7-7-7-7-7-10-9-7--7-7-777/12-|
|-x-x-x-x-x-x—x--x-x--x-x-xxx-x--|
|-5-5-5-5-5-5-8--7-5--5-5-555/10-|
|--------------------------------|

|----------------------------------------|
|----------------------------------------|
|-7-7-7-7-7-7-10-9-7--7-7-777/1212121212-|
|-x-x-x-x-x-x—x--x-x--x-x-xxx-x-x-x-x-x--|
|-5-5-5-5-5-5-8--7-5--5-5-555/1010101010-|
|----------------------------------------|

Chorus Rhythm (x2)(lead plays Intro x1)

Bridge (x2)
|-------------------------------------------------------------|
|-------------------------------------------------------------|
|-77777777-1010101010101010-1212121212121212-1414141414141414-|
|-xxxxxxxx-x-x-x-x-x-x-x-x--x-x-x-x-x-x-x-x--x-x-x-x-x-x-x-x--|
|-55555555-8-8-8-8-8-8-8-8--1010101010101010-1212121212121212-|
|-------------------------------------------------------------|

Outro:
Rhythm                      |this may be wrong--|
|-----------------------------------------------|
|-----------------------------------------------|
|----------------------------12-10--------------|
|-0-0-0-0-0-0-5-3-5-0-0-0-0--------12-10--10-8--|
|-0-0-0-0-0-0-5-3-5-0-0-0-0---------------------|
|-0-0-0-0-0-0-5-3-5-0-0-0-0---------------------|

Lead                        |this may be wrong--|
|--------------------------------------------8--|
|-----------------------------------------------|
|----------------------------12-10--------------|
|-0-0-0-0-0-0-5-3-5-0-0-0-0--------12-10--10----|
|-0-0-0-0-0-0-5-3-5-0-0-0-0---------------------|
|-0-0-0-0-0-0-5-3-5-0-0-0-0---------------------|

____________________________
3: False Pretence (Standard) (sorry too lazy to figure out)

Intro:
|-------------------------------------------------|
|-------------------------------------------------|
|--555/888/121212\1010\88/1010--555/888\33333333--|
|--xxx-xxx-x-x-x--x-x--xx-x-x---xxx-xxx-xxxxxxxx--|
|--333/666/101010\8-8-\66/8-8---333/666\11111111--|
|-------------------------------------------------|

|--------------------------------------------|
|--------------------------------------------|
|--555/888/121212\1010\88/1010--555/888---3--|
|--xxx-xxx-x-x-x--x-x--xx-x-x---xxx-xxx-x-3--|
|--333/666/101010\8-8-\66/8-8---333/666-x-1--|
|---------------------------------------x----|

Verse:
(Begin with some feedback until “set on false pretence”)
|-----------|-------------|----|----------------------|
|-----------|-------------|----|----------------------|
|--55-5-33--|-33-3-33-7-5-|(x3)|--33333333-5555/7777--|
|--55-5-33--|-xx-x-xx-----|----|--33333333-xxxx/xxxx--|
|--33-3-11--|-11-1-11-----|----|--11111111-3333/5555--|
|-----------|-------------|----|----------------------|
PM                                .......

Chorus
|------------------|----|------------|
|------------------|----|------------|
|--5-33-8-55-3-55--|----|--33333333--|
|--5-33-8-55-3-55--|(x2)|--33333333--|
|--3-11—6-33-1-33--|----|--11111111--|
|------------------|----|------------|

Verse:
|--------------------------------|
|--------------------------------|
|--555555--7-5-5-555555--7-5--3--|
|--555555--------555555----------|(x2)
|--333333--------333333----------|
|--------------------------------|
PM ......        ......

|-----------|-------------|----|----------------------|
|-----------|-------------|----|----------------------|
|--55-5-33--|-33-3-33-7-5-|(x3)|--33333333-5555/7777--|
|--55-5-33--|-xx-x-xx-----|----|--33333333-xxxx/xxxx--|
|--33-3-11--|-11-1-11-----|----|--11111111-3333/5555--|
|-----------|-------------|----|----------------------|

Chorus

Bridge “I can talk”
|-----------------------|------------------------|----|--15~--|
|-----------------------|------------------------|----|-------|
|--55----33-33-8\7-8\7--|--55----33-33-10\8-7/8--|----|-------|
|--55-66-33-33-x-x-x-x--|--55-66-33-33-x--x-x-x--|(x2)|-------|
|--33-66-11-11—6\5-6\5--|--33-66-11-11-8-\6-5/6--|----|-------|
|-----44----------------|-----44-----------------|----|-------|

|-----------------------|------------------------|----|-----------|
|-----------------------|------------------------|----|-----------|
|--55----33-33-8\7-8\7--|--55----33-33-10\8-7/8--|----|-55--------|
|--55-66-33-33-x-x-x-x--|--55-66-33-33-x--x-x-x--|(x2)|-55-6-6-5--|
|--33-66-11-11—6\5-6\5--|--33-66-11-11-8-\6-5/6--|----|-33-6-6-5--|
|-----44----------------|-----44-----------------|----|----4-4-3--|

|---------------------|
|---------------------|
|-5~~~---3~~~---------|
|-5~~~---3~~~--xxxxx--|
|-3~~~---1~~~--xxxxx--|
|--------------xxxxx--|

Chorus

Outro:
|-------------------------------------------------|
|-------------------------------------------------|
|--555/888/121212\1010\88/1010--555/888\33333333--|
|--xxx-xxx-x-x-x--x-x--xx-x-x---xxx-xxx-xxxxxxxx--|
|--333/666/101010\8-8-\66/8-8---333/666\11111111--|
|-------------------------------------------------|

|-------------------------------------------------|
|-------------------------------------------------|
|--555/888/121212\1010\88/1010--555/888---3-3333--|
|--xxx-xxx-x-x-x--x-x--xx-x-x---xxx-xxx-x-3-3333--|
|--333/666/101010\8-8-\66/8-8---333/666-x-1-1111--|
|---------------------------------------x---------|
____________
4: Face Down

Intro: Lead
e|-------------------------------------------------|
B|-------------------------------------------------|
G|--10-------10-------10-------9-------------------|
D|--10-------10-------10-------10-/////////////////|
A|--8--------8--------8--------7--/////pick slide//|
D|--------------------------------/////////////////|

Intro: Rhythm
e|-------------------------------------------------|
B|-------------------------------------------------|
G|--------------------3----------------------------|
D|--5--------1--------3--------3-------------------|
A|--5--------1--------1--------3-------------------|
D|--5--------1-----------------3-------------------|

Verse: Lead, Pt.1
e|-------------------------------------------------------|
B|-------------------------------------------------------|
G|---------------------------------------3-33333333-3-3--|
D|--5-555555555555555--1-1111111111-3-3--3-33333333-x-x--|
A|--5-555555555555555--1-1111111111-x-x--1-11111111-1-1--|
D|--5-555555555555555--1-1111111111-1-1------------------|
      ...............    ..........        ........
e|---------------13--|
B|---------------13--|
G|-------------------|
D|--3-33333333-------|
A|--3-33333333-------|
D|--3-33333333-------|
      ........
Verse: Rhythm, Pt.1 (repeat for “Verse: lead pt.2”)
e|-------------------------------------------------------|
B|-------------------------------------------------------|
G|---------------------------------------3-333333333333--|
D|--5-555555555555555--1-11111111111111--3-333333333333--|
A|--5-555555555555555--1-11111111111111--1-111111111111--|
D|--5-555555555555555--1-11111111111111------------------|
      ...............    ..............    ............
e|-------------------|
B|-------------------|
G|-------------------|
D|--3-33333333-------|
A|--3-33333333-------|
D|--3-33333333-------|
      ........

Verse: Lead, Pt.2
e|----------------------------------------------------------|
B|----------------------------------------------------------|
G|---------------------------------------3-3/5-5/7-7/8-8/10-|
D|--5-555555555555555--1-1111111111-1-1--3-x-x-x-x-x-x-x-x--|
A|--5-555555555555555--1-1111111111-x-x--1-1/3-3/5-5/6-6/8--|
D|--5-555555555555555--1-1111111111-1-1---------------------|
      ...............    ..........
e|------------------------------------|
B|------------------------------------|
G|--10101010101010101010101010101010--|
D|--x-x-x-x-x-x-x-x-x-x-x-x-x-x-x-x---|
A|--8-8-8-8-8-8-8-8-8-8-8-8-8-8-8-8---|
D|------------------------------------|

Chorus: (x2)
Lead
e|------------13---------15-13--|----|
B|--11-----11----11-------------|----|
G|-----10-----------10----------|(x2)|
D|------------------------------|----|
A|------------------------------|----|
D|------------------------------|----|

e|-----------13----------13--|--1313-1313-1313-1313-10-10--|
B|--11----11----11----11-----|--1111-1111-1111-1111-10-10--|
G|-----10----------10--------|--1010-1010-1010-1010-10-10--|
D|---------------------------|-----------------------------|
A|---------------------------|-----------------------------|
D|---------------------------|-----------------------------|

Rhythm
e|--------------------------------------------------------|
B|--------------------------------------------------------|
G|--------------------------------------3333333333333333--|
D|--5555555555555555--1111111111111111--3333333333333333--|
A|--5555555555555555--1111111111111111--1111111111111111--|
D|--5555555555555555--1111111111111111--------------------|

e|-------------------|
B|-------------------|
G|-------------------|
D|--33-33-33-33-3-3--|
A|--33-33-33-33-3-3--|
D|--33-33-33-33-3-3--|

Pre-Verse: Rhythm
e|----------------|
B|----------------|
G|----------------|
D|-55-555-555-55--|
A|-55-555-555-55--|
D|-55-555-555-55--|

Verse: Lead, Pt.3
e|-------------------------------------------------------|
B|-------------------------------------------------------|
G|---------------------------------------3-33333333-3-3--|
D|--5-555555555555555--1-1111111111-1-1--3-33333333-x-x--|
A|--5-555555555555555--1-1111111111-1-1--1-11111111-1-1--|
D|--5-555555555555555--1-1111111111-1-1------------------|
      ...............    ..........        ........
e|---------------13-----|
B|------------------13--|
G|----------------------|
D|--3-33333333----------|
A|--3-33333333----------|
D|--3-33333333----------|
      ........

Verse: Rhythm repeats its first verse.

Verse: Lead, Pt.4
e|----------------------------------------|
B|----------------------------------------|
G|--2----3-2--3---2-2/3\2---2---3--2/3\2--|
D|--x----x-x--x---x---------x---x---------|
A|--0----1-0--1---0---------0---1---------|
D|----------------------------------------|

e|--------------------|
B|--------------------|
G|--1010101010101010--|
D|--x-x-x-x-x-x-x-x---|
A|--8-8-8-8-8-8-8-8---|
D|--------------------|

Verse: Rhythm repeats its verse.

Chorus (x2)

Bridge: Lead Pt.1
e|--------------------------------------|
B|--------------------------------------|
G|--------------------------------------|
D|--------------------------------------|
A|--666555-666555--11-33-55-66-888-5555-|
D|--------------------------------------|

Bridge: Rhythm Pt.1
e|--------------------------------------|
B|--------------------------------------|
G|--------------------3-3-3-33----------|
D|--5-5-5-55-1-1-1-11-3-3-3-33-33333333-|
A|--5-5-5-55-1-1-1-11-1-1-1-11-33333333-|
D|--5-5-5-55-1-1-1-11----------33333333-|

Bridge: lead Pt.2
e|--------------------------------------|
B|--------------------------------------|
G|--------------------------------------|
D|--888-777-888-777--88/1010/1212/1313--|
A|--------------------------------------|
D|--------------------------------------|

e|----------------------------|
B|----------------------------|
G|----------------------------|
D|--1515-1515-1515-1515-15-15-|
A|----------------------------|
D|----------------------------|

Bridge: Rhythm Pt.2
e|-----------------------------|
B|-----------------------------|
G|--------------------3-3-3-33-|
D|--5-5-5-55-1-1-1-11-3-3-3-33-|
A|--5-5-5-55-1-1-1-11-1-1-1-11-|
D|--5-5-5-55-1-1-1-11----------|

e|-------------------|
B|-------------------|
G|-------------------|
D|--33-33-33-33-3-3--|
A|--33-33-33-33-3-3--|
D|--33-33-33-33-3-3--|

Interlude: Lead
e|----------------------|
B|----------------------|
G|---------------33333--|
D|--55----111----33333--|
A|--55----111----11111--|
D|--55----111-----------|

This next bit is the cool effect on the song after the screaming.
In order to play this you have to strum the strings above the fret board, as close as 
to the string bolts.
|--0--|
|--0--|
|--0--|
|--0--|
|--0--|
|--0--|

e|---------------------------|
B|---------------------------|
G|--2222-3333-5555-77777777--|
D|--xxxx-xxxx-xxxx-xxxxxxxx--|
A|--0000-1111-3333-55555555--|
D|---------------------------|

Interlude: Rhythm
e|----------------------|
B|----------------------|
G|---------------33333--|
D|--55----111----33333--|
A|--55----111----11111--|
D|--55----111-----------|

e|----------------------|
B|----------------------|
G|----------------------|
D|--555555555555555555--|
A|--555555555555555555--|
D|--555555555555555555--|

Chorus (x2)

Ending: Lead Pt.1 (x2) (Rhythm repeats Chorus x2)
e|------------------------------------------------------|
B|--1111111111111111-1313131313131313-1515151515151515--|
G|--x-x-x-x-x-x-x-x--x-x-x-x-x-x-x-x--x-x-x-x-x-x-x-x---|
D|--8-8-8-8-8-8-8-8--1010101010101010-1212121212121212--|
A|------------------------------------------------------|
D|------------------------------------------------------|

e|-----------------------------|
B|--1818-1818-1818-1818-18-18--|
G|--x-x--x-x--x-x--x-x--x--x---|
D|--1515-1515-1515-1515-15-15--|
A|-----------------------------|
D|-----------------------------|

Ending: Lead Pt.2 (Rhythm repeats Bridge Pt.2)
e|---------------------------------------------------|
B|--111111-101010-111111-101010-1111/1313/1515/1616--|
G|--x-x-x--x-x-x--x-x-x--x-x-x--x-x--x-x--x-x--x-x---|
D|--8-8-8--7-7-7--8-8-8--7-7-7--8-8-/1010/1212/1313--|
A|---------------------------------------------------|
D|---------------------------------------------------|

e|-----------------------------|
B|--1818-1818-1818-1818-18-18--|
G|--x-x--x-x--x-x--x-x--x--x---|
D|--1515-1515-1515-1515-15-15--|
A|-----------------------------|
D|-----------------------------|

End: Both
e|-----------------|
B|-----------------|
G|-----------------|
D|-55-555-555-55/--|
A|-55-555-555-55/--|
D|-55-555-555-55/--|
____________________________________
5: Misery loves its Company (drop D) this is mostly wrong

Intro:
Rhythm (no distortion)                      |Add dist.-|
|------------------------------------------------------|
|---------------------------------------------------7--|
|-7777777777777777-5555555555555555-99999999-999999-9^-|
|-7777777777777777-5555555555555555-99999999-xxxxxx----|
|-5555555555555555-3333333333333333-77777777-777777----|
|------------------------------------------------------|

Pre-verse: (x2)
Rhythm
|--------------------------------------------|
|--------------------------------------------|
|----------------------------14-12-11/12-----|
|--4-----2---4-3-2-5555-7777-x--x--x--x------|
|--4-----2---4-3-2—5555-7777-12-10-9-/10-----|
|--4-----2---4-3-2-5555-7777-----------------|

Lead
|-----------------------------------------|
|----6--------------------8---------------|
|----8^------------------10^--------------|
|-----------------------------------------|
|-----------------------------------------|
|-----------------------------------------|

Verse
Rhythm
|---------|
|---------|
|---------|
|--7---5--|(x4)
|--7---5--|
|--7---5--|

Lead (after first rhythm)
|--------------|----|-----------------|
|--------------|----|-----------------|
|--------------|----|-------------7-5-|
|--7-5---5-7-5-|(x4)|-7-5---5-7-5-7-5-|
|------7-------|----|-----7-------5-3-|
|--------------|----|-----------------|
PM . . . . . .

Chorus:
|-------------------------------------|
|-------------------------------------|
|--1212121212121212-14141414/1111111--|
|--x-x-x-x-x-x-x-x--x-x-x-x--x-x-x-x--|(x2)
|--1010101010101010-12121212/9-9-9-9--|
|-------------------------------------|

|----------------------------------------------------------------|
|----------------------------------------------------------------|
|-12121212121212121212121212121212--1414141414141414-------------|
|-x-x-x-x-x-x-x-x-x-x-x-x-x-x-x-x---x-x-x-x-x-x-x-x--0-000-0-000-|
|-10101010101010101010101010101010--1212121212121212-0-000-0-000-|
|----------------------------------------------------0-000-0-000-|
PM                                                     ...   ...

Verse (Rhythm x4) (Lead x1)

Chorus (x2)

Bridge
Rhythm
|---------|
|---------|
|-12-9-7--|
|-x--x-x--|(x3)
|-10-7-5--|
|---------|

Lead (quiet) (x2)
|-------------------------------------------------------|
|-12-1212-------10-1010--------12-1212-------13-1313----|
|---------12------------12-------------12------------12-|
|-------------------------------------------------------|
|-------------------------------------------------------|
|-------------------------------------------------------|

Rhythm “Into dust” (x2)
|---------------------------------------|
|---------------------------------------|
|---------------------------------------|
|--55555555-99999999-77777777-66666666--|
|--55555555-99999999-77777777-66666666--|
|--55555555-99999999-77777777-66666666--|

Lead “Into Dust” (loud)
|-------------------------------------------------------|
|-12-1212-------10-1010--------12-1212-------13-1313----|
|---------12------------12-------------12------------12-|(x2)
|-------------------------------------------------------|
|-------------------------------------------------------|
|-------------------------------------------------------|

|-----|
|--5--|
|--7^-|
|-----|
|-----|
|-----|

Chorus (w/ a lot of distortion)

Chorus

Outro:
Rhythm
|--------------------------------------------|
|--------------------------------------------|
|----------------------------14-12-11/12-----|
|--4-----2---4-3-2-5555-7777-x--x--x--x------|
|--4-----2---4-3-2—5555-7777-12-10-9-/10-----|
|--4-----2---4-3-2-5555-7777-----------------|

Lead
|-----------------------------------------|
|----6--------------------8---------------|
|----8^------------------10^--------------|
|-----------------------------------------|
|-----------------------------------------|
|-----------------------------------------|

Either guitar
|--------------|----|----------|----|------|
|--------------|----|----------|----|------|
|--14-12-11/12-|----|-14-12-11-|----|--12--|
|--x--x--x--x--|(x2)|-x--x--x--|(x3)|--12--|
|--12-10-9-/10-|----|-12-10-9--|----|--10--|
|--------------|----|----------|----|------|

6: Cat and Mouse (Chords)

Intro - Am, G, C

Am        G       C
Softly we tremble tonight,
Am              G                 C
picture perfect fading smiles are all that's left in site,
Am         G           C
I said I'd never leave you'll never change
        Am             G               C
I'm not satisfied with where I'm at in life.

Am    C                F
   Am I supposed to be happy?

   With all I ever wanted, it comes with a price.
Am    C                F
   Am I supposed to be happy?

   With all I ever wanted, it comes with a price.
Am           C                       F
   You said, you said that you would die for me….

We made plans to grow old,
believe me there was truth in all those stories that I told.
Lost in a simple game cat and mouse are we the same
people as before this came to light?

Am I supposed to be happy?
with all I ever wanted, it comes with a price.
Am I supposed to be happy?
with all I ever wanted, it comes with a price.
You said, you said that you would die for me…

C                 G   F
You must live for me too...
       G   F              Am C F Am C
For me too...yeah, yeah…
                    F
said that you would die for me…

Am I supposed to be happy?
with all I ever wanted, it comes with a price.
Am I supposed to be happy?
with all I ever wanted, it comes with a price
You said, you said that you would die for me.

______________
7: Damn Regret

Intro:  Rhythm (repeat ‘till lead is done)
e|-----------------------------------|
B|-----------------------------------|
G|-------6/7-7--6/7-7---6/7-7-6/7-7--|
D|-----------------------------------|
A|-----------------------------------|
E|-----------------------------------|

Lead (after one round of Rhythm)
e|---------------------------------------|
B|---------------------------------------|
G|-7-------------------------------------|
D|-7(x5)---7------5------999-7-----------|(x2)
A|-5-------7(x5)--5(x5)--999-7-----------|
E|---------5------3------777-5--5-5h7-5--|

Verse:
e|------------------|
B|------------------|
G|-7----------------|
D|-7--7--5---4---5--|
A|-5--7--5---4---5--|
E|----5--3---2---3--|

e|-----------------------------------------|
B|-----------------------------------------|
G|-----------------------------------------|
D|-2222222--4--5555555-----999--7777/5557--|
A|-2222222--4--5555555-----999--7777/5557--|
E|-0000000--2--3333333-----777--5555/3335--|
    .. ..       .. ..       ..   ..   .

Chorus (same as Intro)

Verse

Chorus but end on
e|-----|
B|-----|
G|-----|
D|--9--|
A|--9--|
E|--7--|

Bridge
e|--------------|----|----------------|
B|--------7-----|----|----------------|
G|------7---7---|----|----------------|
D|----7------7--|(x3)|-7-777777777-7--|
A|--5-----------|----|-7-777777777-7--|
D|--------------|----|-5-555555555-5--|
                         .........

Chorus: Without Rhythm (x1)
Chorus: with Rhythm    (x1)

Outro: Lead now plays this.
e|--------------------|
B|--------------------|
G|--------------------|(x6)
D|--------------------|
A|---5-4-5-4-5-7-5-4--|
E|--------------------|

Rhythm
e|--------------------------------|
B|--------------------------------|
G|-777777-------------------------|
D|-777777-777777-555555-999-7777--|(x2)
A|-555555-777777-555555-999-7777--|
E|--------555555-333333-777-5555--|

e|------------------|
B|------------------|
G|----77777---------|
D|----77777--999-7--|
A|----55555--999-7--|
E|-----------777-5--|

__________
8: Atrophy

Intro: (x2)
E----------------------------|------------------------|
B----------------------------|------------------------|
G----1010------1010----------|-----1010-----1010------|
D-55-x-x---55--x-x--3\5-3\5--|--55-x-x---55-x-x--111--|
A-55-8-8---55--8-8--3\5-3\5--|--55-8-8---55-8-8--111--|
D-55-------55-------3\5-3\5--|--55-------55------111--|
                                                 ...
Verse:
Rhythm(x2)
E----------------------------|
B----------------------------|
G----------------------------|
D-5-5-------1-1------1-1-3-3-|
A-5-5(x8)---1-1(x8)--1-1-3-3-|
D-5-5-------1-1------1-1-3-3-|
    .         .
E--------------------|
B--------------------|
G--------------------|
D-5-5------1-1-------|
A-5-5(x8)--1-1(x16)--|
D-5-5------1-1-------|
    .        .
Lead
E------------------------------------------|
B----------------------------------------6-|
G-7-7-5-5-2-2-2-2-2-2--5---------5---------|
D-x-x-x-x-x-x-x-x-x-x-----8-7-8---8---8----|
A-5-5-3-3-0-0-0-0-0-0----------------------|
D------------------------------------------|
                       .  . . .  ..   .  .

                      |-four times------|
E---------------------|-----------------|
B---------------------|6----------------|
G-7-7-5-5-2-2-2-2-2-2-|---------7-------|
D-x-x-x-x-x-x-x-x-x-x-|--8-7-8---8-7-8--|
A-5-5-3-3-0-0-0-0-0-0-|-----------------|
D---------------------|-----------------|
                       . . . .  .. . .
Chorus: (x2)
E---------------------------------------------|
B---------------------------------------------|
G-----------33333333--------------------------|
D-55555555--33333333--11111111--33333333-xxx-—|
A-55555555--11111111--11111111--33333333-xxx--|
D-55555555------------11111111--33333333-xxx--|

Pre-verse:
Lead
E---------------------|
B-----------6p0-------|
G--5p0-----------7p0--|
D-------8p0-----------|
A---------------------|
D---------------------|

Verse (x2)

Chorus (x2)

Post-chorus
E-----|
B-----|
G—-7--|
D--x--|
A--5--|
D-----|

Bridge
E-------------------------|
B-------------------------|
G-------3333--------------|
D-5555--xxxx--1111--3333--|
A-xxxx--1111--xxxx--xxxx--|
D-5555--------1111--3333--|

Intrelude
E---------------------------------------------------------------|
B---------------------------------------------------------------|
G-22222222/33333333/55555555/77777777/88888888/1010101010101010-|
D-xxxxxxxx-xxxxxxxx-xxxxxxxx-xxxxxxxx-xxxxxxxx-x-x-x-x-x-x-x-x--|
A-00000000/11111111/33333333/55555555/66666666/8-8-8-8-8-8-8-8--|
D---------------------------------------------------------------|

E-----------------------------------|
B-----------------------------------|
G-1212121212121212/141414141414/15--|
D-x-x-x-x-x-x-x-x—-x-x-x-x-x-x—x----|
A-1010101010101010/121212121212/13--|
D-----------------------------------|

“You’ll never walk”

Interlude part 2
E------------------------|
B------------------------|
G------------------------|
D-11111111-33333333-xxx--|
A-11111111-33333333-xxx--|
D-11111111-33333333-xxx--|

Chorus (x2)

Post-Chorus

Chorus (x2) “take back..”

Outro:
E----------------------------|------------------------|
B----------------------------|------------------------|
G----1010------1010----------|-----1010-----1010------|
D-55-x-x---55--x-x--3\5-3\5--|--55-x-x---55-x-x--111--|
A-55-8-8---55--8-8--3\5-3\5--|--55-8-8---55-8-8--111--|
D-55-------55-------3\5-3\5--|--55-------55------111--|
                                                 ...
___________________________
9: Seventeen ain’t so sweet

Intro: Rhythm (no distorion)
|---------------------------------|
|---------------------------------|
|--5555555555---------------------|
|--5555555555--55555555555--------|
|--3333333333--55555555555--------|
|--------------33333333333--------|

lead (no distorion)
|---------------------------------|
|---------------------------------|
|--5555555555----------999--------|
|--5555555555--5555555-xxx--xxxx--|
|--3333333333--5555555-777--xxxx--|
|--------------3333333------xxxx--|

Verse: Both
|-----------------------|
|-----------------------|
|--5-5/9-9\5-7\5-7-9-5--|(x2)
|--x-x-x-x-x-x-x-x-x-x--|
|--3-3/7-7\3-5\3-5-7-3--|
|-----------------------|

Post verse: Rhythm
|--------------------------|----|-------------|
|--------------------------|----|-------------|
|--555555------------------|(x2)|--9999-9999--|
|--555555--555555--333333--|----|--xxxx-xxxx--|
|--333333--555555--333333--|----|--7777-7777--|
|----------333333--111111--|----|-------------|
PM                                 ....

Pre-chorus: Both
|-------|
|-------|
|--5--4-|
|--5--4-|
|--3--2-|
|-------|

Chorus
|-------------------------------------|
|-------------------------------------|
|--5555555555555555-------------------|
|--5555555555555555-5555555555555555--|(x2)
|--3333333333333333-5555555555555555--|
|-------------------3333333333333333--|

|-------------------------------------------------|
|-------------------------------------------------|
|--5-5-5-5-5-5-5-5--------------5-5-5/7-9\5-9-12--|
|--5-5-5-5-5-5-5-5-5-5-5-5-xxxx-x-x-x-x-x-x-x--x--|
|--3-3-3-3-3-3-3-3-5-5-5-5-xxxx-3-3-3/5-7\5-7-10--|
|------------------3-3-3-3-xxxx-------------------|

Verse 2: Rhythm
|-----------------------|
|-----------------------|
|-----------------------|
|--5-5/9-9\5-7\5-7-9-5--|
|--5-5/9-9\5-7\5-7-9-5--|
|--3-3/7-7\3-5\3-5-7-3--|

Post verse

Pre-chorus (with pick slide from lead guitar)

Chorus

Bridge (listen for timing)
|--------------|----|---------------------------|
|--------------|----|---------------------------|
|--121212-1212-|----|--99999999-1010101010101010|
|--x-x-x--x-x--|(x6)|--xxxxxxxx-x-x-x-x-x-x-x-x-|
|--101010-1010-|----|--77777777-8-8-8-8-8-8-8-8—|
|--------------|----|---------------------------|
PM . . .

|--------------------------------------------------------------|
|--------------------------------------------------------------|
|-99999999-1212121212121212-999999999-7777777-999999-5---------|
|-xxxxxxxx-x-x-x-x-x-x-x-x--xxxxxxxx-xxxxxxxx-xxxxxx-5---xx-xx-|
|-77777777-1010101010101010-77777777-55555555-777777-3---xx-xx-|
|--------------------------------------------------------xx-xx-|

Chorus (x2)

Outro:
|--------|----|----|
|--------|----|----|
|-555555-|----|-12-|
|-555555-|(x7)|-12-|
|-333333-|----|-10-|
|--------|----|----|
___________
10: Justify (drop C)

Intro: Rhythm (x4)
D|---------|----|----------|----|
A|---------|----|----------|----|
F|------55-|----|------55--|(x4)|
C|---------|(x4)|----------|----|
G|---------|----|-1323-----|----|
C|-0323----|----|----------|----|
   .... ..        .... ..

Intro: Lead
D|------------------------|
A|------------------------|
F|7------3------5---------|
C|7(x5)--3(x5)--x(x10)----|
G|5------1------3---------|
C|0------0----------------|

Verse: Rhythm (x2)
D|---------|----|----------|----|
A|---------|----|----------|----|
F|------55-|----|------55--|(x4)|
C|---------|(x4)|----------|----|
G|---------|----|-1323-----|----|
C|-0323----|----|----------|----|
   .... ..        .... ..

Verse: lead
D|---------------------------|
A|---------------------------|
F|---------------------------|
C|7-7--7--777----3-3-3--333--|
G|5-5--5--555----1-1-1--111--|
C|0-0--0--000----0-0-0--000--|

Verse: Both
D|-------------------------------------|
A|-------------------------------------|
F|------------7------10-----9-----10*--|
C|-----0-0-0--7(x3)--x-(x8)-x(x8)------|
G|-----0-0-0--5------8------7----------|
C|-----0-0-0---------------------------|

D|-------------------------------------------------|
A|---------------------------------------------12*-|
F|-----------7-----5----/-7----/-9----/-10---------|
C|-0-0-0-14*-7(x3)-x(x4)/-x(x4)/-x(x4)/-x-(x4)-----|
G|-0-0-0-----5-----3----/-5----/-7----/-8----------|
C|-0-0-0-------------------------------------------|

Chorus: Both
D|--------------------------------------------------------------|
A|--------------------------------------------------------------|
F|--------------10-----9------------3--------5------------------|
C|-0-0--0-0-0---x-(x4)-x(x4)--3-----3(x6)----5(x8)----3333/555--|
G|-0-0--0-0-0---8------7------3(x6)-1----873-3-----53-3333/555--|
C|-0-0--0-0-0-----------------3-----------------------3333/555--|

Post-chorus
D|--1----1-----1----|
A|--------3-----3---|
F|---------2-----2--|
C|-0-0------0-------|
G|------------------|
C|------------------|

Verse

Chorus (x2)

Bridge
D|--1-1---1----|--|--5--3--1--3-1h3p1---|---1----1----1---|--|---1-14*|
A|-----3---3---|--|-------------------h3|---------3----3--|--|---3----|
F|------2---2--|x2|---------------------|----------2----2-|x2|---2----|
C|-0-0---0-----|--|---------------------|--0--0-----0-----|--|---0----|
G|-------------|--|---------------------|-----------------|--|--------|
C|-------------|--|---------------------|-----------------|--|--------|

Chorus

Outro:
D|-----------------|
A|-----------------|
F|--10-----14------|
C|--x-(x6)-x-(x6)--|
G|--8------12------|
C|-----------------|
PM  .
e|--------------------------------------------------------------|
B|-----------------------------------------------------13*-15*--|
G|------10-----9---------------5--------------------------------|
D|0-0---x-(x5)-x(x5)-3---------5(x5)----33333/55555-0-----------|
A|0-0---8------7-----3(x5)-873-3-----53-33333/55555-0-----------|
E|0-0----------------3------------------33333/55555-0-----------|
PM. .
_________________________
11: Your Guardian Angel (Drop C)

Intro
|----------------------------------------------------------------|
|----------------------------------------------------------------|
|----------------------------------------------------------------|
|--5-5555-7777-5555-5-5-0-0000-7777-000-7-5-4-2-2222-555-444-222-|
|--5-5555-5555-5555-5-5-0-0000-0000-000-------2-2222-222-222-222-|
|--5-5555-5555-5555-5-5-0-0000-0000-000-------2-2222-222-222-222-|

|-------------------------|
|-------------------------|
|-------------------------|
|--5-5555-555-7-7777-777--|
|--3-3333-333-5-5555-555--|
|-------------------------|


Verse (x4)
|---------------------------------------|
|---------------------------------------|
|---------------------------------------|
|--55555555-00000000-22222222-55555555--|
|--55555555-00000000-22222222-33333333--|
|--55555555-00000000-22222222-----------|

Chorus (x2)
|--------------------------------------|
|--------------------------------------|
|--------------------------------------|
|--5--------0--------2--------5--------|
|--5--------0--------2--------3--------|
|--5--------0--------2-----------------|

Intro

Verse (x2)

Chorus (x2)

Intro

Bridge “cause I’m here...”
|----------------------------------------------------------------|
|----------------------------------------------------------------|
|----------------------------------------------------------------|
|--5-5555-7777-5555-5-5-0-0000-7777-000-7-5-4-2-2222-555-444-222-|
|--5-5555-5555-5555-5-5-0-0000-0000-000-------2-2222-222-222-222-|
|--5-5555-5555-5555-5-5-0-0000-0000-000-------2-2222-222-222-222-|

Guitar 2 w/dist. comes in here.
|-----------------|
|-----------------|
|-55-55-77777777--|
|-55-55-77777777--|
|-33-33-55555555--|
|-----------------|

|-------------------------------------------------|
|-------------------------------------------------|
|-------------------------------------------------|
|--555555555555555-000000000000000-22222222222222-|
|--555555555555555-000000000000000-22222222222222-|
|--555555555555555-000000000000000-22222222222222-|

|---------------------|
|---------------------|
|--55555555-77777777--|
|--55555555-77777777--|
|--33333333-55555555--|
|---------------------|

Verse (guitar 1 plays above verses)
Guitar 2
|--------------------------------------------|
|--------------------------------------------|
|-----------77777777----------555555/777777--|
|--55555555-xxxxxxxx-22222222-xxxxxx-xxxxxx--|
|--55555555-55555555-22222222-333333/555555--|
|--55555555----------22222222----------------|

Repeat the last verse twice and then as many times for the ending chorus, until the fade out.

_____________________________
12: The Grim Goodbye (Drop C)

Intro: Guitar 1 (x4)
|---5-------0--5-----5-----88--|---5-------0-5-----5-----------|
|-----6-6-------------6-6------|-----6-6-------------6---------|
|-0---------------0------------|-0--------------0--------------|
|------------------------------|-------------------------0--0--|
|------------------------------|-------------------------0--0--|
|------------------------------|-------------------------0--0--|

Guitar 2 (x3)
|------------------------------|------------------------------|
|------------------------------|------------------------------|
|------------------------------|------------------------------|
|-0-------------0--------------|-0-------------0--------0--0--|
|------------------------------|------------------------0--0--|
|------------------------------|------------------------0--0--|
                                                        U  U
guitar 2
|------------|
|------------|
|---7-77-77--|
|---7-77-77--|
|---5-55-55--|
|------------|

guitar 1
|-----------------------888888--|----|---5----0-5-----------------|
|--666666-555555-666666---------|----|----6-6---------------------|
|-------------------------------|----|-0--------------------------|
|-------------------------------|(x3)|----------------------------|
|-------------------------------|----|----------------------------|
|-------------------------------|----|----------------------------|

guitar 2
|-------------------------------|----|-----------------------17^--|
|-------------------------------|----|----------------------------|
|--777777/999999-777777/555555--|----|--77777/99999-7-77-77-------|
|--xxxxxx--xxxxx-xxxxxx--xxxxx--|(x3)|--xxxxx--xxxx-7-77-77-------|
|--555555/777777-555555/333333--|----|--55555/77777-5-55-55-------|
|-------------------------------|----|----------------------------|
Wooooo, oh, oh, oh, oh, oh, oh,
Oh, oh, oh, oh my eyes.
Wooooo, oh, oh, oh, oh, oh, oh,
Oh, oh, oh, oh closing slowly.

Pre-Verse: guitar 1
|-----------|
|-----------|
|--77-------|
|--77--7-3--|(x4)
|--55--7-3--|
|------7-3--|

guitar 2 (after third time of guitar 1)
|-----------------|
|-----------------|
|--777777-999999--|
|--xxxxxx-xxxxxx--|
|--555555-777777--|
|-----------------|
Don’t you try to take me down (no!)
Don’t you try to take me over
Won’t you try to break me

Guitar 1
|-----------|
|-----------|
|--77-------|
|--77--7-0--|
|--55--7-0--|
|------7-0--|

Guitar 1
|------------|
|------------|
|--77777777--|
|--xxxxxxxx--|
|--55555555--|
|------------|

Guitar 2
|No-distortion-------------------|
|--------------------------------|
|--------------------------------|
|--------------------------------|
|--7----10---5---5--7----10---5--|
|--5----8----3---3--5----8----3--|
|--------------------------------|
The complexities moving in
And I feel that I do not have the strength
Tragedies plaguing me solemnly
It’s affecting my will.

Guitar 1
|------|
|------|
|--14--|
|--x---|
|--12--|
|------|

Verse: Guitar 1
|-------------------|
|-------------------|
|--7----7----7------|
|--x----x----x------|
|--5----5----5------|
|-------------------|

Guitar 2
|------------------------17--|
|----------------------------|
|-------------12h14-12-------|
|----------------------------|
|----------------------------|
|----------------------------|
But wait now that I’ve you

Guitar 1
|-------------------|
|-------------------|
|--5----5----5------|
|--x----x----x------|
|--3----3----3------|
|-------------------|

Guitar 2
|------------------------------|
|--------------5h6p5-----------|
|---------------------7p5------|
|-------------------------7p5--|
|------------------------------|
|------------------------------|
Situations from dark now change to grey

Guitar 1
|-------------------|
|-------------------|
|--7----7----7------|
|--x----x----x------|
|--5----5----5------|
|-------------------|

Guitar 2
|----------------------------|
|---------------8p6---8p6----|
|-------------------7-----7--|
|----------------------------|
|----------------------------|
|----------------------------|
disregarding my absence of memories

Guitar 1
|-------------------|
|-------------------|
|--5----5----5------|
|--5----5----5------|
|--3----3----3------|
|-------------------|

Guitar 2
|---------------------|
|---------------------|
|---------------------|
|------------------3--|
|----------------3----|
|--------------0------|
It’s perpetually binding me of sanity

Guitar 1
|--------------------|---------------|
|--------------------|---------------|
|--7----7----7----7--|--5----5----5--|
|--x----x----x----x--|--x----x----x--|
|--5----5----5----5--|--3----3----3--|
|--------------------|---------------|

Guitar 2
|---------------|----|---------|
|---------------|----|---------|
|---------------|----|---------|
|--7-5----------|(x7)|------3--|
|------8-8-7-5--|----|----3----|
|---------------|----|--0------|
PM . . .   . .
And just when I’m giving in
As I try to Scale these walls

Guitar 1   NH
|----------17---|
|---------------|
|--7---7--------|
|--x---7--------|
|--5---5--------|
|---------------|

Guitar 2
|---------------|
|------5-6------|
|----------5~---|
|---------------|
|---------------|
|---------------|
Jericho falls around me

 Guitar 1
|-------------------|
|-------------------|
|--5----5----5------|
|--5----5----5------|
|--3----3----3------|
|-------------------|

Guitar 2
|----------------------|
|----------------------|
|----------------------|
|------------------3---|
|----------------3-----|
|--------------0-------|
and I feel that I've strayed to long


pre-chorus: Guitar 1 (guitar 2 could play the 6's)
|---------------|----|----------5--|----|
|--------6---6--|----|----6---6----|----|
|--5h7-7---7----|----|--5---5------|----| x2
|---------------|(x2)|-------------|(x2)|
|---------------|----|-------------|----|
|---------------|----|-------------|----|
And darkness is fading in
And darkness is real

guitar 2
|-----------------------------------|
|-----------------------------------|
|-----------------------------------|
|--------------------------3-33-33--|
|--------------------------3-33-33--|
|--------------------------3-33-33--|
PM                         . .. ..
chorus: both
|----------------------------|
|----------------------------|
|----------------------------|
|--0--8883--7830--8883--078--|
|--0--8883--7830--8883--078--|
|--0--8883--7830--8883--078--|

                             PH
|----------------------------14---|
|---------------------------------|
|---------------------------------|
|--0--8883--7830--8883--033-------|
|--0--8883--7830--8883--033-------|
|--0--8883--7830--8883--033-------|
Wooooo, oh, oh, oh, oh, oh, oh,
Oh, oh, oh, oh my eyes.
Wooooo, oh, oh, oh, oh, oh, oh,
Oh, oh, oh, oh closing slowly.
I try!

pre-verse:
|---------------------------|--------------------10--|
|-----------------------10--|--------------------10--|
|--7---------------7--------|--7-------------7-------|
|--x--7-5-3-2-3----x--------|--x—7-5-3-2-3---x-------|
|--5------------5--5--------|--5-----------5-5-------|
|---------------------------|------------------------|
PM    . . . . . .                . . . . . .

Verse: Guitar 1
|-------------------|
|-------------------|
|--7----7----5------|
|--x----7----5------|
|--5----5----3------|
|-------------------|

Guitar 2
|------------------------17--|
|----------------------------|
|-------------12h14-12-------|
|----------------------------|
|----------------------------|
|----------------------------|
Fate, seams to recreate.

Guitar 1
|-------------------|
|-------------------|
|--5----5----5------|
|--5----5----5------|
|--3----3----3------|
|-------------------|

guitar 2
|-------------------------------------|
|--------------------8p6--------------|
|------------------------7p5----------|
|-----------------------------7p5-----|
|-------------------------------------|
|-------------------------------------|
I Just Cannot Escape

Guitar 1
|-------------------|
|-------------------|
|--7----7----7------|
|--x----x----x------|
|--5----5----5------|
|-------------------|

Guitar 2
|----------------------------|
|---------------8p6---8p6----|
|-------------------7-----7--|
|----------------------------|
|----------------------------|
|----------------------------|
Something holds me down
And makes me

Guitar 1
|-------------------|
|-------------------|
|--5----5----5------|
|--5----5----5------|
|--3----3----3------|
|-------------------|

Guitar 2
|---------------------|
|---------------------|
|---------------------|
|------------------3--|
|----------------3----|
|--------------0------|
act a way I can’t explain

Guitar 1
|--------------------|---------------|
|--------------------|---------------|
|--7----7----7----7--|--5----5----5--|
|--x----x----x----x--|--x----x----x--|
|--5----5----5----5--|--3----3----3--|
|--------------------|---------------|

Guitar 2
|---------------|----|---------|
|---------------|----|---------|
|---------------|----|---------|
|--7-5----------|(x7)|------3--|
|------8-8-7-5--|----|----3----|
|---------------|----|--0------|
PM . . .   . .
Even now I can fell it coming
over me choking me
As I’m falling behind

Guitar 1   NH
|----------17---|
|---------------|
|--7---7--------|
|--x---7--------|
|--5---5--------|
|---------------|

Guitar 2
|---------------|
|------5-6------|
|----------7~---|
|---------------|
|---------------|
|---------------|
you can say you know me

 Guitar 1
|-------------------|
|-------------------|
|--5----5----5------|
|--5----5----5------|
|--3----3----3------|
|-------------------|

Guitar 2
|----------------------|
|----------------------|
|----------------------|
|-------------------3--|
|-----------------3----|
|---------------0------|
but you have no clue what my dreams
could show you.

pre-chorus: Guitar 1 (guitar 2 could play the 6's)
|---------------|----|----------5--|----|
|--------6---6--|----|----6---6----|----|
|--5h7-7---7----|----|--5---5------|----| x2
|---------------|(x2)|-------------|(x2)|
|---------------|----|-------------|----|
|---------------|----|-------------|----|
And darkness is fading in
And darkness is real

guitar 2
|-----------------------------------|
|-----------------------------------|
|-----------------------------------|
|--------------------------3-33-33--|
|--------------------------3-33-33--|
|--------------------------3-33-33--|
PM                         . .. ..
chorus: both
|----------------------------|
|----------------------------|
|----------------------------|
|--0--8883--7830--8883--078--|
|--0--8883--7830--8883--078--|
|--0--8883--7830--8883--078--|

                             PH
|----------------------------14---|
|---------------------------------|
|---------------------------------|
|--0--8883--7830--8883--033-------|
|--0--8883--7830--8883--033-------|
|--0--8883--7830--8883--033-------|
Wooooo, oh, oh, oh, oh, oh, oh,
Oh, oh, oh, oh my eyes.
Wooooo, oh, oh, oh, oh, oh, oh,
Oh, oh, oh, oh closing slowly.
I try!

bridge: Guitar 1 (guitar 2 could play the 6's)
|---------------|----|----------5--|----|
|--------6---6--|----|----6---6----|----|
|--5h7-7---7----|----|--5---5------|----| x4
|---------------|(x2)|-------------|(x2)|
|---------------|----|-------------|----|
|---------------|----|-------------|----|
I!
Can’t!
Can’t Wait! (tell me what you see)

on last time, last note:
guitar 2
|--------|
|--15----|
|--17^---|
|--------|
|--------|
|--------|

Guitar 1
|---------------|----|----------5--|----|
|--------6---6--|----|----6---6----|----|
|--5h7-7---7----|----|--5---5------|----| x4
|---------------|(x2)|-------------|(x2)|
|---------------|----|-------------|----|
|---------------|----|-------------|----|

 Guitar 2
|------------------------|
|------------------------|
|------------------------|
|--33333335555533333333--|
|--33333355555533333333--|
|--33333355555533333333--|
PM ....................
I feel something deep inside me
I feel deep in side!

Guitar 1 (x2)
|----------------------------------------------------------------|
|----------------------------------------------------------------|
|--1414141414141414--1212121212121212--1616161616161616--999999--|
|---x-x-x-x-x-x-x-x---x-x-x-x-x-x-x-x---x-x-x-x-x-x-x-x--xxxxxx--|
|--1212121212121212--1010101010101010--1414141414141414--777777--|
|----------------------------------------------------------------|

guitar 2
|----------------------------------|
|----------------------------------|
|----------------------------------|(x2)
|--555555--333333--777777--222222--|
|--555555--333333--777777--222222--|
|--555555--333333--777777--222222--|
I feel somethin' deep inside me
And I can’t let this go
I feel something deep inside me
And I can’t let this go

Guitar 1 (x2)
|-------------------------|
|-------------------------|
|--141414141414--19-19-19-|
|--x-x-x-x-x-x---x--x--x--|(x2)
|--121212121212--17-17-17-|
|-------------------------|

|------------------------------|
|------------------------------|
|--191919-1717/22222222222222--|
|--x-x-x--x-x--x—x-x-x-x-x-x---|
|--171717-1515/20202020202020--|
|------------------------------|

Guitar 2
|-----------------------------------------------------|
|-----------------------------------------------------|
|-----------------------------------------------------|
|--7770--33333333/777777----0----0---33333333/777777--|
|--7770--33333333/777777----0----0---33333333/777777--|
|--7770--33333333/777777----0----0---33333333/777777--|
Lies!
As I try to steer clear
I try to stay sober
This is taking me over
And my dreams complicate it...

Guitar 1
|--------8--|
|--------x--|
|--7-----7--|
|--x--x--x--|(x3)
|--5--x--5--|
|-----x-----|

Guitar 2
|---------------------------|
|---------------------------|
|---------------------------|
|--------------3p2----------|(x2)
|------------------4p3------|
|----------------------5p4--|
I just cannot let this go!
I tried so many times to tell you!
I just can not let this go

Guitar 1 (now the 0’s might be played by the bass I can’t tell exactly)
|--------------------------|
|--------------------------|
|------7------9------7-----|
|--00--x--00--x--00--x--5--|
|--00--5--00—-7--00--5--5--|
|--00-----00-----00-----5--|
PM ..     ..     ..
I just cannot win

Guitar 1
|---------------------------|
|---------------------------|
|---------------------------|
|--3---3---3---2---2---2----|x4 with out guitar two
|----5---5---5---3---3---3--|x4 with gtr. 2
|---------------------------|

Guitar 2
|--5----0---0--5----8-----|
|----66---6------66---66--|
|-------------------------|
|-------------------------|x4
|-------------------------|
|-------------------------|
I see you
I see you
Falling away
I see you

(No guitars)killing me softly

Guitar 1
|---------------------------|
|---------------------------|
|---------------------------|
|--3---3---3---2---2---2----|x4
|----5---5---5---3---3---3--|
|---------------------------|

Guitar 2
|--5----0---0--5----8-----|
|----66---6------66---66--|
|-------------------------|x4
|-------------------------|
|-------------------------|
|-------------------------|
I see you
I see you
Falling away
I see you

Guitar 1
|------------------------|
|------------------------|
|------------------------|(x4 without guitar 2)
|-------7--------333-----|then
|----7----8-7----333-----|(x3 with guitar 2)
|--7----------7--333-----|
PM . . .  . . .  ...

Guitar 2
|--5555--|
|--6666--|
|--7777--|x3
|--------|
|--------|
|--------|
Don’t take what’s in front of me
Open eyes can see
I have everything
Tell you Don’t take what’s in front of me
Tell you don’t take what’s in me!

Guitar 1
|--------------------|
|--------------------|
|--------------------|
|------7--------333--|
|----7---8-7----333--|
|--7---------7--333--|
PM              ...

Guitar 2
|--5555--|
|--6666--|
|--7777--|
|--------|
|--------|
|--------|

either guitar (no dist.)
|--5-5-0-----8-8-|
|--6-6-6(x3)-6-6-|
|----------------|
|----------------|
|----------------|
|----------------|

chorus: Guitar 1
|----------------------------|
|----------------------------|
|----------------------------|
|--0--8883--7830--8883--078--|
|--0--8883--7830--8883--078--|
|--0--8883--7830--8883--078--|

|---------------------------|
|---------------------------|
|---------------------------|
|--0--8883--7830--88833333--|
|--0--8883--7830--88833333--|
|--0--8883--7830--88833333--|

Guitar 2
|-----------------------------------------------------|
|-----------------------------------------------------|
|------------------------121212121212/141414141414-15-|
|--0--8883--7830--8883---x-x-x-x-x-x--x-x-x-x-x-x--x--|
|--0--8883--7830--8883---101010101010/121212121212-13-|
|--0--8883--7830--8883--------------------------------|

|----------------------------------------------------------------|
|----------------------------------------------------------------|
|-1414141414141414-12121212-14141515-14141414-12121212-10101010--|
|-x-x-x-x-x-x-x-x--x-x-x-x--x-x-x-x--x-x-x-x--x-x-x-x--x-x-x-x---|
|-1212121212121212-10101010-12121313-12121212-10101010-8-8-8-8---|
|----------------------------------------------------------------|

|------------|
|------------|
|--99999999--|
|--xxxxxxxx--|
|--77777777--|
|------------|
Lies! Which one lied.
And I feel this come away.
way oh, oh, oh, oh.
That’s why I try

Interulude
Guitar 1
|----------------------------------------|
|----------------------------------------|
|----------------------------------------|
|-12(x32)-12(x6)-12(x16)-12(x6)-12(x16)--|
|----------------------------------------|
|----------------------------------------|
PM .              .              .

|--------------------------------|
|--------------------------------|
|---------9-------9(x6)----------|six times with palm mute, and twice
|-12(x6)-12(x6)----------12(x6)--|without. Then twice with guitar 2
|--------------------------------|
|--------------------------------|
Wooooo, oh, oh, oh, oh, oh, oh,
Oh, oh, oh, oh.
Wooooo, oh, oh, oh, oh, oh, oh,
Oh, oh, oh, oh.
Wooooo, oh, oh, oh, oh, oh, oh,
Oh, oh, oh, oh.
Wooooo, oh, oh, oh, oh, oh, oh,
Oh, oh, oh, oh.

Guitar 2 (guitar 1 repeats above)
|------------8-------------------8--|-----------|
|------------x-------------------x--|--16-/17---|
|--7----7----7----7----7----7----7--|--18^/19^--|
|--x----x----x----x----x----x----x--|-----------|
|--5----5----5----5—---5----5----5--|-----------|
|-----------------------------------|-----------|
I see you walking away
Dreams may fall more everyday
But I see you walking away

chorus: Guitar 1
|----------------------------|
|----------------------------|
|----------------------------|
|--0--8883--7830--8883--078--|
|--0--8883--7830--8883--078--|
|--0--8883--7830--8883--078--|

|-------------------------------------|
|-------------------------------------|
|-------------------------------------|
|--0--8883--7830--888-33-33-33-----3--|
|--0--8883--7830--888-33-33-33---3----|
|--0--8883--7830--888-33-33-33-0------|

Guitar 2
|--------------------------------------------------|
|--------------------------------------------------|
|------------------------121212121212/141414-1515--|
|--0--8883--7830--8883---x-x-x-x-x-x----x-x--x-x---|
|--0--8883--7830--8883---101010101010/121212-1313--|
|--0--8883--7830--8883-----------------------------|

|---------------------------------------------------------------|
|---------------------------------------------------------------|
|--777777-101010101010-121212121212-14141515-14141414-12121212--|
|--xxxxxx-x-x-x-x-x-x--x-x-x-x-x-x--x-x-x-x--x-x-x-x--x-x-x-x---|
|--555555-8-8-8-8-8-8--101010101010-12121313-12121212-10101010--|
|---------------------------------------------------------------|

|-------------------------|
|-------------------------|
|--1010-1010-1010---------|
|--1010-1010-1010------3--|
|--8-8--8-8--8-8-----3----|
|------------------0------|
and I’ve tried
Tries to separate
Dreams from reality
Which to satisfy this wanting
Tried to stay righteous
Tried to stay sober
But then.
I
Can’t
Win!

Outro: Guitar 1 (guitar 2 could play the 6's)
|---------------|----|----------5--|----|
|--------6---6--|----|----6---6----|----|
|--5h7-7---7----|----|--5---5------|----|x3 slow down for each
|---------------|(x2)|-------------|(x2)|
|---------------|----|-------------|----|
|---------------|----|-------------|----|
|---------------|----|-------------|----|
And I know you,
And I know you
                         |Gt.2 could also play this--|
|-------------------|----|---------------------------|
|----------6-----6--|----|-5-6-5-6-5-6-5-6-5-6-------|
|--5h7--7-----7-----|----|---------------------------|
|-------------------|(x2)|---------------------------|
|-------------------|----|---------------------------|
|-------------------|----|---------------------------|
And I know you

|Both guitars-------|
|-------------------|
|-------------------|
|-------------------|
|---0--------------0|
|---0-(drum roll)--0|
|---0--------------0|
Lie!

End.
comments
print report bad tab
14 comments total. Showing first comments.
+1 reply
spencer Cr wrote on October 18 2006, 07:13 am

nice job dude. misery loves it's company is alittle off though

+1 reply
Gsus I.B wrote on November 13 2006, 08:02 pm

wot a Freaking Awesome Taaab!!!! and all its like so perfectly done like just a few idiot mistakes but wateva hahaha TRJA Freking Rules

+1 reply
HH_Emo_666 wrote on November 16 2006, 04:40 pm

great tab man .. its not perfect tho .. but i beleve it deserves 5 stars

I want to post or [tab]
guest
You may want to rate the tab now too:
select rating
Please do not post tabs as comments. Select "correction" instead!