Oops, an error
Loading. Please wait.

Face Down Tab

ver1
ver1
More versions @911Tabs.com
122,202 views 602 this week
13 commentsread comments
1 2 3 4 5
accurate
x 23
Autoscroll
+/-
esc
set tempo
stop
Contributor
Tuning
D A D G B E
WARNING: You are trying to view
                                    content from Ultimate-Guitar.com
                                    in an unauthorized application,
                                    which is prohibited.

                                    Please use an official Ultimate
                                    Guitar Tabs application for iPhone,
                                    iPad or Android to access legitimate
                                    chords, guitar, bass, and drum tabs
                                    from Ultimate-Guitar.com database.

                                    Type "ultimate guitar tabs" in Apple
                                    App Store's or Android Market's
                                    search to find the application.
Face down
the Red Jumpsuit Apparatus
don't you fake it
Drop D


Intro: Lead
e|-------------------------------------------------|
B|-------------------------------------------------|
G|--10-------10-------10-------9-------------------|
D|--10-------10-------10-------10-/////////////////|
A|--8--------8--------8--------7--/////pick slide//|
D|--------------------------------/////////////////|

Intro: Rhythm
e|-------------------------------------------------|
B|-------------------------------------------------|
G|--------------------3----------------------------|
D|--5--------1--------3--------3-------------------|
A|--5--------1--------1--------3-------------------|
D|--5--------1-----------------3-------------------|

Verse: Lead, Pt.1
e|-------------------------------------------------------|
B|-------------------------------------------------------|
G|---------------------------------------3-33333333-3-3--|
D|--5-555555555555555--1-1111111111-3-3--3-33333333-x-x--|
A|--5-555555555555555--1-1111111111-x-x--1-11111111-1-1--|
D|--5-555555555555555--1-1111111111-1-1------------------|
      ...............    ..........        ........
e|---------------13--|
B|---------------13--|
G|-------------------|
D|--3-33333333-------|
A|--3-33333333-------|
D|--3-33333333-------|
      ........
Verse: Rhythm, Pt.1 (repeat for “Verse: lead pt.2”)
e|-------------------------------------------------------|
B|-------------------------------------------------------|
G|---------------------------------------3-333333333333--|
D|--5-555555555555555--1-11111111111111--3-333333333333--|
A|--5-555555555555555--1-11111111111111--1-111111111111--|
D|--5-555555555555555--1-11111111111111------------------|
      ...............    ..............    ............
e|-------------------|
B|-------------------|
G|-------------------|
D|--3-33333333-------|
A|--3-33333333-------|
D|--3-33333333-------|
      ........

Verse: Lead, Pt.2
e|----------------------------------------------------------|
B|----------------------------------------------------------|
G|---------------------------------------3-3/5-5/7-7/8-8/10-|
D|--5-555555555555555--1-1111111111-1-1--3-x-x-x-x-x-x-x-x--|
A|--5-555555555555555--1-1111111111-x-x--1-1/3-3/5-5/6-6/8--|
D|--5-555555555555555--1-1111111111-1-1---------------------|
      ...............    ..........
e|------------------------------------|
B|------------------------------------|
G|--10101010101010101010101010101010--|
D|--x-x-x-x-x-x-x-x-x-x-x-x-x-x-x-x---|
A|--8-8-8-8-8-8-8-8-8-8-8-8-8-8-8-8---|
D|------------------------------------|

Chorus: (x2)
Lead
e|------------13---------15-13--|----|
B|--11-----11----11-------------|----|
G|-----10-----------10----------|(x2)|
D|------------------------------|----|
A|------------------------------|----|
D|------------------------------|----|

e|-----------13----------13--|--1313-1313-1010-1010-10-10--|
B|--11----11----11----11-----|--1111-1111-1010-1010-10-10--|
G|-----10----------10--------|--1010-1010-1010-1010-10-10--|
D|---------------------------|-----------------------------|
A|---------------------------|-----------------------------|
D|---------------------------|-----------------------------|

Rhythm
e|--------------------------------------------------------|
B|--------------------------------------------------------|
G|--------------------------------------3333333333333333--|
D|--5555555555555555--1111111111111111--3333333333333333--|
A|--5555555555555555--1111111111111111--1111111111111111--|
D|--5555555555555555--1111111111111111--------------------|

e|-------------------|
B|-------------------|
G|-------------------|
D|--33-33-33-33-3-3--|
A|--33-33-33-33-3-3--|
D|--33-33-33-33-3-3--|

Pre-Verse: Rhythm
e|----------------|
B|----------------|
G|----------------|
D|-55-555-555-55--|
A|-55-555-555-55--|
D|-55-555-555-55--|

Verse: Lead, Pt.3
e|-------------------------------------------------------|
B|-------------------------------------------------------|
G|---------------------------------------3-33333333-3-3--|
D|--5-555555555555555--1-1111111111-1-1--3-33333333-x-x--|
A|--5-555555555555555--1-1111111111-1-1--1-11111111-1-1--|
D|--5-555555555555555--1-1111111111-1-1------------------|
      ...............    ..........        ........
e|---------------13-----|
B|------------------13--|
G|----------------------|
D|--3-33333333----------|
A|--3-33333333----------|
D|--3-33333333----------|
      ........

Verse: Rhythm repeats its first verse.

Verse: Lead, Pt.4
e|----------------------------------------|
B|----------------------------------------|
G|--2----3-2--3---2-2/3\2---2---3--2/3\2--|
D|--x----x-x--x---x---------x---x---------|
A|--0----1-0--1---0---------0---1---------|
D|----------------------------------------|

e|--------------------|
B|--------------------|
G|--1010101010101010--|
D|--x-x-x-x-x-x-x-x---|
A|--8-8-8-8-8-8-8-8---|
D|--------------------|

Verse: Rhythm repeats its verse.

Chorus (x2)

Bridge: Lead Pt.1
e|--------------------------------------|
B|--------------------------------------|
G|--------------------------------------|
D|--------------------------------------|
A|--666555-666555--11-33-55-66-888-5555-|
D|--------------------------------------|

Bridge: Rhythm Pt.1
e|--------------------------------------|
B|--------------------------------------|
G|--------------------3-3-3-33----------|
D|--5-5-5-55-1-1-1-11-3-3-3-33-33333333-|
A|--5-5-5-55-1-1-1-11-1-1-1-11-33333333-|
D|--5-5-5-55-1-1-1-11----------33333333-|

Bridge: lead Pt.2
e|--------------------------------------|
B|--------------------------------------|
G|--------------------------------------|
D|--888-777-888-777--88/1010/1212/1313--|
A|--------------------------------------|
D|--------------------------------------|

e|----------------------------|
B|----------------------------|
G|----------------------------|
D|--1515-1515-1515-1515-15-15-|
A|----------------------------|
D|----------------------------|

Bridge: Rhythm Pt.2
e|-----------------------------|
B|-----------------------------|
G|--------------------3-3-3-33-|
D|--5-5-5-55-1-1-1-11-3-3-3-33-|
A|--5-5-5-55-1-1-1-11-1-1-1-11-|
D|--5-5-5-55-1-1-1-11----------|

e|-------------------|
B|-------------------|
G|-------------------|
D|--33-33-33-33-3-3--|
A|--33-33-33-33-3-3--|
D|--33-33-33-33-3-3--|

Interlude: Lead
e|----------------------|
B|----------------------|
G|---------------33333--|
D|--55----111----33333--|
A|--55----111----11111--|
D|--55----111-----------|

This next bit is the cool effect on the song after the screaming.
In order to play this you have to strum the strings above the fret board, as close as 
to the string bolts.
|--0--|
|--0--|
|--0--|
|--0--|
|--0--|
|--0--|

e|---------------------------|
B|---------------------------|
G|--2222-3333-5555-77777777--|
D|--xxxx-xxxx-xxxx-xxxxxxxx--|
A|--0000-1111-3333-55555555--|
D|---------------------------|

Interlude: Rhythm
e|----------------------|
B|----------------------|
G|---------------33333--|
D|--55----111----33333--|
A|--55----111----11111--|
D|--55----111-----------|

e|----------------------|
B|----------------------|
G|----------------------|
D|--555555555555555555--|
A|--555555555555555555--|
D|--555555555555555555--|

Chorus (x2)

Ending: Lead Pt.1 (x2) (Rhythm repeats Chorus x2)
e|------------------------------------------------------|
B|--1111111111111111-1313131313131313-1515151515151515--|
G|--x-x-x-x-x-x-x-x--x-x-x-x-x-x-x-x--x-x-x-x-x-x-x-x---|
D|--8-8-8-8-8-8-8-8--1010101010101010-1212121212121212--|
A|------------------------------------------------------|
D|------------------------------------------------------|

e|-----------------------------|
B|--1818-1818-1818-1818-18-18--|
G|--x-x--x-x--x-x--x-x--x--x---|
D|--1515-1515-1515-1515-15-15--|
A|-----------------------------|
D|-----------------------------|

Ending: Lead Pt.2 (Rhythm repeats Bridge Pt.2)
e|---------------------------------------------------|
B|--111111-101010-111111-101010-1111/1313/1515/1616--|
G|--x-x-x--x-x-x--x-x-x--x-x-x--x-x--x-x--x-x--x-x---|
D|--8-8-8--7-7-7--8-8-8--7-7-7--8-8-/1010/1212/1313--|
A|---------------------------------------------------|
D|---------------------------------------------------|

e|-----------------------------|
B|--1818-1818-1818-1818-18-18--|
G|--x-x--x-x--x-x--x-x--x--x---|
D|--1515-1515-1515-1515-15-15--|
A|-----------------------------|
D|-----------------------------|

End: Both
e|-----------------|
B|-----------------|
G|-----------------|
D|-55-555-555-55/--|
A|-55-555-555-55/--|
D|-55-555-555-55/--|

* Harmonics
/ slie up
\ slide down
x rake
. palm mute
13 comments total. Showing first comments.
0 reply
St.Jimmy13 wrote on January 6 2007, 09:10 pm

excellent tab man, better than version 1

0 reply
spencer Cr wrote on January 6 2007, 10:17 pm

thanx if only i can influence other to think the same

0 reply
St.Jimmy13 wrote on January 20 2007, 09:35 pm

although ive seen it a bunch of times the intro is only played with guitar one so u should just leave guitar 2 out of it but it still sounds awesome

I want to post or [tab]
guest
You may want to rate the tab now too:
select rating
Please do not post tabs as comments. Select "correction" instead!