Oops, an error
Loading. Please wait.

In Fates Hands Tab

ver2
ver2

Intro

Whole song

Interactive

More versions @911Tabs.com
10,046 views 3 this week
1 commentread comment
1 2 3 4 5
excellent!
x 3
Autoscroll
+/-
esc
set tempo
stop
Contributor
Difficulty
Tuning
intermediate
C G C F A D
Hey! There's an official Ultimate Guitar app which is ideal
for learning songs when you're away from computer. Get the app
WARNING: You are trying to view
                                    content from Ultimate-Guitar.com
                                    in an unauthorized application,
                                    which is prohibited.

                                    Please use an official Ultimate
                                    Guitar Tabs application for iPhone,
                                    iPad or Android to access legitimate
                                    chords, guitar, bass, and drum tabs
                                    from Ultimate-Guitar.com database.

                                    Type "ultimate guitar tabs" in Apple
                                    App Store's or Android Market's
                                    search to find the application.
        IN FATE'S HANDS - THE RED JUMPSUIT APPARATUS
Ok, so its drop c tuning, like all RJA songs. Ive tried to accurately convey the
strumming pattern, but its not that hard to work out ;)
Many many kudos must go to screamokid (version 2 of this tab) and to mikebefly
(version 3), who gave the backbone for this tab, with a few
minor corrections. Enjoy

Intro
d---------------------------------------------------------------------------------|
A---------------------------------------------------------------------------------|
F-5-55-555-5555-555-5-55-555-5555/9-9-9-9---2-22-222-2222-2-22-222-2/3\2/3--------|
C-7-77-777-7777-777-7-77-777-7777/10101010--3-33-333-3333-3-33-333-3/4\3/4--------|
G-5-55-555-5555-555-5-55-555-5555/8-8-8-8---1-11-111-1111-1-11-111-1/2\1/2--------|
C---------------------------------------------------------------------------------|
|         ^ same strumming pattern as last 4 notes, but the spaces are for clarity
|
d---------------------------------------------------------------------------------|
A---------------------------------------------------------------------------------|
F-5-55-555-5555-555-5-55-555-5555/9-9-9-9---2-22-222-2222-2-22-222----------77----|
C-7-77-777-7777-777-7-77-777-7777/10101010--3-33-333-3333-3-33-333----------77----|
G-5-55-555-5555-555-5-55-555-5555/8-8-8-8---1-11-111-1111-1-11-111----------55----|
C---------------------------------------------------------------------------------|

Verse
|---------------------------------------------------|
|---------------------------------------------------|
|--5/777-777---10/777-777---5/777-777---5/777-10/9--|
|--5/777-777---10/777-777---5/777-777---5/777-10/9--|
|--3/555-555---8-/555-555---3/555-555---3/555-8-/7--|
|---------------------------------------------------|
|
|---------------------------------------------------|
|---------------------------------------------------|
|--5/777-777---10/777-777---5/777-777---5/777-10/9--|
|--5/777-777---10/777-777---5/777-777---5/777-10/9--|
|--3/555-555---8-/555-555---3/555-555---3/555-8-/7--|
|---------------------------------------------------|

|----------------------------------------------------|
|----------------------------------------------------|
|----------------------------------------------------|
|-7/888-888--7/888-888--7/888-888--7/888---10-10-----|
|-7/888-888--7/888-888--7/888-888--7/888---10-10-----|
|-7/888-888--7/888-888--7/888-888--7/888---10-10-----|
|
|----------------------------------------------------|
|----------------------------------1515151515151515--|
|----------------------------------1414141414141414--|
|-7/888-888--7/888-888--7/888-888--1212121212121212--|
|-7/888-888--7/888-888--7/888-888--------------------|
|-7/888-888--7/888-888--7/888-888--------------------|

      ^ These are 15's, 14's and 12's

14 Beat Rest

|---------------------------------------------------------------------|
|---------------------------------------------------------------------|
|-10-9-1010101010101010-99999999-101010101010101010-1414141414141414--|
|---------------------------------------------------------------------|
|-8--7-8-8-8-8-8-8-8-8--77777777-8-8-8-8-8-8-8-8-8--1212121212121212--|
|---------------------------------------------------------------------|
|        ^ 14's and 12's
|
|---------------------------------------------------------------------|
|---------------------------------------------------------------------|
|-10-9-1010101010101010-99999999-101010101010101010-1414141414141414--|
|---------------------------------------------------------------------|
|-8--7-8-8-8-8-8-8-8-8--77777777-8-8-8-8-8-8-8-8-8--1212121212121212--|
|---------------------------------------------------------------------|

14 Beat Rest


|--------------------------------------------------------------------------|
|--------------------------------------------------------------------------|
|-10-9-1010101010101010-9-9-9-9-9-9-9-9--1414141414141414-1919191919191919-|
|--------------------------------------------------------------------------|
|-8--7-8-8-8-8-8-8-8-8--7-7-7-7-7-7-7-7--1212121212121212-1717171717171717-|
|--------------------------------------------------------------------------|
|         ^ 14's and 12's  19's and 17's
|--------------------------------------------------------------------------|
|--------------------------------------------------------------------------|
|------1010101010101010-1212121212121212-1414141414141414-1919191919191919-|
|--------------------------------------------------------------------------|
|------8-8-8-8-8-8-8-8--1010101010101010-1212121212121212-1717171717171717-|
|--------------------------------------------------------------------------|


Chorus
|----------------------------------------------------------------------------|
|----------------------------------------------------------------------------|
|-7757---7757---7757---775/109-----------------------------------------------|
|-7757---7757---7757---775/109----8878---8878---8878---887--10-10------------|
|-5535---5535---5535---553/8-7----8878---8878---8878---887--10-10------------|
|---------------------------------8878---8878---8878---887--10-10------------|
|
|----------------------------------------------------------------------------|
|----------------------------------------------------------------------------|
|-7757---7757---7757---775/109-------------------------7p5-------------------|
|-7757---7757---7757---775/109----8878---8878-------------7p5-----------+5+--|
|-5535---5535---5535---553/8-7----8878---8878----------------7p6p5p4-+5+-----|
|---------------------------------8878---8878--------------------------------|
        ^ If you can, these 2 sound better as pinch harmonics


|---------------------------------------------------------------------|
|---------------------------------------------------------------------|
|-7757---7757---7757---775/109----------------------------------------|
|-7757---7757---7757---775/109----8878---8878---8878---887--10-10-----|
|-5535---5535---5535---553/8-7----8878---8878---8878---887--10-10-----|
|---------------------------------8878---8878---8878---887--10-10-----|
|
|---------------------------------------------------------------------|
|-----------------------------------------------8br8br8br8br----------|
|-7757---7757---7757---775/109-------------------------------9--------|
|-7757---7757---7757---775/109----8878---8878-------------------------|
|-5535---5535---5535---553/8-7----8878---8878-------------------------|
|---------------------------------8878---8878------------------12~~~--|


Verse
|-------------------------------------------------------|
|-------------------------------------------------------|
|--5/777-777---10/777-777---5/777-777---5/777-10/9------|
|--5/777-777---10/777-777---5/777-777---5/777-10/9------|
|--3/555-555---8-/555-555---3/555-555---3/555-8-/7------|
|-------------------------------------------------------|
|
|-------------------------------------------------------|
|-------------------------------------------------------|
|--5/777-777---10/777-777---5/777-777---5/777-10/9------|
|--5/777-777---10/777-777---5/777-777---5/777-10/9------|
|--3/555-555---8-/555-555---3/555-555---3/555-8-/7------|
|-------------------------------------------------------|


|-------------------------------------------------------|
|-------------------------------------------------------|
|-------------------------------------------------------|
|-7/888-888--7/888-888--7/888-888--7/888---10-10--------|
|-7/888-888--7/888-888--7/888-888--7/888---10-10--------|
|-7/888-888--7/888-888--7/888-888--7/888---10-10--------|
|
|-------------------------------------------------------|
|----------------------------------1515151515151515-----|
|----------------------------------1414141414141414-----|
|----------------------------------1212121212121212-----|
|-------------------------------------------------------|
|-------------------------------------------------------|
                                   ^ These are 15's, 14's and 12's

14 Beat Rest

|--------------------------------------------------------------------|
|--------------------------------------------------------------------|
|-10-9-1010101010101010-99999999-101010101010101010-1414141414141414-|
|--------------------------------------------------------------------|
|-8--7-8-8-8-8-8-8-8-8--77777777-8-8-8-8-8-8-8-8-8--1212121212121212-|
|--------------------------------------------------------------------|
|                                                   ^ 14's and 12's
|
|--------------------------------------------------------------------|
|--------------------------------------------------------------------|
|-10-9-1010101010101010-99999999-101010101010101010-1414141414141414-|
|--------------------------------------------------------------------|
|-8--7-8-8-8-8-8-8-8-8--77777777-8-8-8-8-8-8-8-8-8--1212121212121212-|
|--------------------------------------------------------------------|

|--------------------------------------------------------------------|
|--------------------------------------------------------------------|
|--------------------------------------------------------------------|
|--------------------------------------------------------------------|
|--55555555555555-55555555555555-------------------------------------|
|--------------------------------------------------------------------|
|P.M.............
|
|
|---13-13-13-13------------------------------------------------------|
|---x--x--x--x-------------------------------------------------------|
|---11-11-11-11------------------------------------------------------|
|--------------------------------------------------------------------|
|-----------------55535553555355-------------------------------------|
|--------------------------------------------------------------------|


|--------------------------------------------------------------------------|
|--------------------------------------------------------------------------|
|-10-9-1010101010101010-9-9-9-9-9-9-9-9--1414141414141414-1919191919191919-|
|--------------------------------------------------------------------------|
|-8--7-8-8-8-8-8-8-8-8--7-7-7-7-7-7-7-7--1212121212121212-1717171717171717-|
|--------------------------------------------------------------------------|
|                                        ^ 14's and 12's  19's and 17's
|
|--------------------------------------------------------------------------|
|--------------------------------------------------------------------------|
|------1010101010101010-1212121212121212-1414141414141414-1919191919191919-|
|--------------------------------------------------------------------------|
|------8-8-8-8-8-8-8-8--1010101010101010-1212121212121212-1717171717171717-|
|--------------------------------------------------------------------------|


Chorus
|----------------------------------------------------------------------------|
|----------------------------------------------------------------------------|
|-7757---7757---7757---775/109-----------------------------------------------|
|-7757---7757---7757---775/109----8878---8878---8878---887--10-10------------|
|-5535---5535---5535---553/8-7----8878---8878---8878---887--10-10------------|
|---------------------------------8878---8878---8878---887--10-10------------|
|
|----------------------------------------------------------------------------|
|----------------------------------------------------------------------------|
|-7757---7757---7757---775/109-------------------------7p5-------------------|
|-7757---7757---7757---775/109----8878---8878-------------7p5-----------+5+--|
|-5535---5535---5535---553/8-7----8878---8878----------------7p6p5p4-+5+-----|
|---------------------------------8878---8878--------------------------------|

|---------------------------------------------------------------------|
|---------------------------------------------------------------------|
|-7757---7757---7757---775/109----------------------------------------|
|-7757---7757---7757---775/109----8878---8878---8878---887--10-10-----|
|-5535---5535---5535---553/8-7----8878---8878---8878---887--10-10-----|
|---------------------------------8878---8878---8878---887--10-10-----|
|
|---------------------------------------------------------------------|
|-----------------------------------------------8br8br8br8br----------|
|-7757---7757---7757---775/109-------------------------------9--------|
|-7757---7757---7757---775/109----8878---8878-------------------------|
|-5535---5535---5535---553/8-7----8878---8878-------------------------|
|---------------------------------8878---8878-------------------------|

Bridge
|----------------------------------------|
|----------------------------------------|
|--7~-7/9/10~--10~-9~-7\5~----7~-10\9~---|
|--x~-x/x/x~~--x~~-x~-x\x~----x~-x-\x~---|
|--5~-5/7/8~~--8~~-7~-5\3~----5~-8-\7~---|
|----------------------------------------|
|
|-------------------------------------|
|----------------14~-----77-77--------|
|----------------x-~-----xx-xx--------|
|----------------12~-----55-55--------|
|-------------------------------------|
|-------------------------------------|


|-------------------------------------------------|
|-------------------------------------------------|
|--7~-7\5-12\10~--10~9~---7\5~-7~10\9~-12\10~--7~-|
|--x~-x\x-x-\x~~--x~~x~---x\x~-x~x-\x~-x-\x~~--x~-|
|--5~-5\3-10\8~~--8~~7~---5\3~-5~8-\7~-10\8~~--5~-|
|-------------------------------------------------|
|
|-----------------13131313------------------------|
|-----------------x-x-x-x-------------------------|
|-----------------11111111------------------------|
|-------------------------------------------------|
|-------------------------------------------------|
|-------------------------------------------------|


14 beat rest


|----------------------------|
|----------------------------|
|-----------7p5--------------|
|--------------7p5-----------|
|-----------------7p6p5p4----|
|----------------------------|
|
|----------------------------|
|----------------------------|
|-----------7p5--------------|
|--------------7p5-----------|
|-----------------7p6p5p4----|
|----------------------------|

|---------------------------------------------------|
|---------------------------------------------------|
|--5/777-777---10/777-777---5/777-777---5/777-10/9--|
|--5/777-777---10/777-777---5/777-777---5/777-10/9--|
|--3/555-555---8-/555-555---3/555-555---3/555-8-/7--|
|---------------------------------------------------|
|
|--------------------------------------------------|
|--------------------------------------------------|
|--5/777-777---10/777-777---5/777-777---5/777-10/9-|
|--5/777-777---10/777-777---5/777-777---5/777-10/9-|
|--3/555-555---8-/555-555---3/555-555---3/555-8-/7-|
|--------------------------------------------------|

|---------------------------------------------------------------------|
|---------------------------------------------------------------------|
|---------------------------------------------------------------------|
|-7/8-8-8---8-8-8--7/8-8-8---8-8-8--7/8-8-8---8-8-8--7/8-8-8----10-10-|
|-7/8-8-8---8-8-8--7/8-8-8---8-8-8--7/8-8-8---8-8-8--7/8-8-8----10-10-|
|-7/8-8-8---8-8-8--7/8-8-8---8-8-8--7/8-8-8---8-8-8--7/8-8-8----10-10-|
|
|---------------------------------------------------------------------|
|---------------------------------------------------------------------|
|-1010101010101010-1212121212121212-1414141414141414-1919191919191919-|
|---------------------------------------------------------------------|
|-8-8-8-8-8-8-8-8--1010101010101010-1212121212121212-1717171717171717-|
|---------------------------------------------------------------------|

Chorus
|----------------------------------------------------------------------------|
|----------------------------------------------------------------------------|
|-7757---7757---7757---775/109-----------------------------------------------|
|-7757---7757---7757---775/109----8878---8878---8878---887--10-10------------|
|-5535---5535---5535---553/8-7----8878---8878---8878---887--10-10------------|
|---------------------------------8878---8878---8878---887--10-10------------|
|
|----------------------------------------------------------------------------|
|----------------------------------------------------------------------------|
|------------------------------------------------------7p5-------------------|
|---------------------------------------------------------7p5-----------+5+--|
|------------------------------------------------------------7p6p5p4-+5+-----|
|----------------------------------------------------------------------------|

|---------------------------------------------------------------|
|---------------------------------------------------------------|
|-7757---7757---7757---775/109----------------------------------|
|-7757---7757---7757---775/109----8878---8878---8878---887------|
|-5535---5535---5535---553/8-7----8878---8878---8878---887------|
|---------------------------------8878---8878---8878---887------|
|
|---------------------------------------------------------13-13-|
|---------------------------------------------------------x--x--|
|---------------------------------------------------------11-11-|
|---------------------------------------------------------------|
|---------------------------------------------------------------|
|---------------------------------------------------------------|


|----------------------------------------------------------------------------------|
|----------------------------------------------------------------------------------|
|--1010101010101010\9-9-9-9-9-9-9-9/1010101010101010\9-9-9-9-9-9-9-9---------------|
|----------------------------------------------------------------------------------|
|--8-8-8-8-8-8-8-8-\7-7-7-7-7-7-7-7/8-8-8-8-8-8-8-8-\7-7-7-7-7-7-7-7-7/8-8-8-8-8---|
|----------------------------------------------------------------------------------|

-------------------------------------|
-------------------------------------|
9/1010101010101010/1212121212121212--|
-------------------------------------|
8-8-8-/1010101010101010--------------|
-------------------------------------|


|
|--1313131313131313\1212121212121212/1313131313131313\12121212--------|
|---------------------------------------------------------------------|
|--1111111111111111\1010101010101010/1111111111111111\10101010--------|
|---------------------------------------------------------------------|
|---------------------------------------------------------------------|
|---------------------------------------------------------------------|

12121212/1313131313131313/1515151515151515--|
--------------------------------------------|
10101010/1111111111111111/1212121212121212--|
--------------------------------------------|
--------------------------------------------|
--------------------------------------------|

|----------------------------------------------------------------------------|
|----------------------------------------------------------------------------|
|-7757--7757--7757--7757-777-------------------------------------------------|
|-7757--7757--7757--7757-777-------------------------------------------------|
|-5535--5535--5535--5535-555-------------------------------------------------|
|----------------------------------------------------------------------------|
|
|----------------------------------------------------------------------------|
|----------------------------------------------------------------------------|
|-7757--7757--7757--7757-777-------------------------------------------------|
|-7757--7757--7757--7757-777-------------------------------------------------|
|-5535--5535--5535--5535-555-------------------------------------------------|
|----------------------------------------------------------------------------|


NOTATION THAT YOU NEED TO KNOW:
-----------------------------------------------
/ slide up
\ slide down
+ natural harmonic on the nth fret
P.M. ... palm mute the notes above these
p pull off
~~ let note ring
br bend release (like a quick vibrato-y thing)
-----------------------------------------------

Feel free to email me at bgbnbigben@gmail.com or pm me with your questions.
please rate this tab, too.
bgbn
comments
We did not receive enough feedback on this tab! Please rate:
print report bad tab
1 2 3 4 5
1 comment total.
+1 reply
=(Cody=) wrote on June 13 2009, 10:17 pm

awesome job! the chords in the beginning are perfect. i'd just change the distorted chords to octave chords. and on this:

|----------------------------------------------------|
|----------------------------------1515151515151515--|
|----------------------------------1414141414141414--|
|-7/888-888--7/888-888--7/888-888--1212121212121212--|
|-7/888-888--7/888-888--7/888-888--------------------|
|-7/888-888--7/888-888--7/888-888--------------------|

just play:

|----------------------------------1010101010101010--|
|----------------------------------1010101010101010--|
|----------------------------------1010101010101010--|
|-7/888-888--7/888-888--7/888-888--------------------|
|-7/888-888--7/888-888--7/888-888--------------------|
|-7/888-888--7/888-888--7/888-888--------------------|

its a lot easier to get your fingers on those =)

awesome tab otherwise! 5*

I want to post or [tab]
guest
You may want to rate the tab now too:
select rating
Please do not post tabs as comments. Select "correction" instead!