Oops, an error
Loading. Please wait.

Represent Tab

ver1
ver1

Whole song

Interactive

More versions @911Tabs.com
5,029 views 3 this week
no commentswrite comment
1 2 3 4 5
accurate
x 7
Autoscroll
+/-
esc
set tempo
stop
Contributor
Hey! There's an official Ultimate Guitar app which is ideal
for learning songs when you're away from computer. Get the app
WARNING: You are trying to view
                                    content from Ultimate-Guitar.com
                                    in an unauthorized application,
                                    which is prohibited.

                                    Please use an official Ultimate
                                    Guitar Tabs application for iPhone,
                                    iPad or Android to access legitimate
                                    chords, guitar, bass, and drum tabs
                                    from Ultimate-Guitar.com database.

                                    Type "ultimate guitar tabs" in Apple
                                    App Store's or Android Market's
                                    search to find the application.
-----------------------------------------------------------------------------                  
                      REPRESENT - THE RED JUMPSUIT APPARATUS 
-----------------------------------------------------------------------------


Email: mystery_rider06@yahoo.com

Tuning: Drop C


This is my first tab and I'm sure this is not 100% accurate because of lack 
of experience... I'm open for any comments and suggestions...pls rate :)

Figure out the strumming and pauses on the intro and verses

Intro 

Guitar 1 
|---------------------------------------------------------------------------|
|---------------------------------------------------------------------------|
|---------------------------------------------------------------------------|
|------9-9--9-9-9-12-12---12-12-12-11-11---11-11-11-12-12----12-12-12-------|
|------9-9--9-9-9-9--9----9--9--9--9--9----9--9--9--9--9-----9--9--9--------|
|------9-9--9-9-9-9--9----9--9--9--9--9----9--9--9--9--9-----9--9--9--------|

|---------------------------------------------------------------------------|
|---------------------------------------------------------------------------|
|-------------7-7-7-6-6----6-6-6-7-7----7-7-7-6-6--6-6-6--------------------|
|------5-5----5-5-5-5-5----5-5-5-5-5----5-5-5-5-5--5-5-5--------------------| guitar 2 comes in
|------5-5----5-5-5-5-5----5-5-5-5-5----5-5-5-5-5--5-5-5--------------------|
|------5-5----5-5-5-5-5----5-5-5-5-5----5-5-5-5-5--5-5-5--------------------|

Guitar 2

|---------------------------------------------10-12-10-9-10-----------------|
|-----------------------------------------------------------12--------------|
|---------------------------------------------------------------------------|
|---------------------------------------------------------------------------|
|---------------------------------------------------------------------------|
|---------------------------------------------------------------------------|


Verse 1

played 2x
|---------------------------------------------------------------------------|
|---------------------------------------------------------------------------|
|---------------------------------------------------------------------------|
|------9-9--9-9-9-12-12---12-12-12-11-11---11-11-11-12-12----12-12-12-------|
|------9-9--9-9-9-9--9----9--9--9--9--9----9--9--9--9--9-----9--9--9--------|
|------9-9--9-9-9-9--9----9--9--9--9--9----9--9--9--9--9-----9--9--9--------|

|---------------------------------------------------------------------------|
|---------------------------------------------------------------------------|
|-------------7-7-7-6-6----6-6-6-7-7----7-7-7-6-6--6-6-6--------------------|
|------5-5----5-5-5-5-5----5-5-5-5-5----5-5-5-5-5--5-5-5--------------------|
|------5-5----5-5-5-5-5----5-5-5-5-5----5-5-5-5-5--5-5-5--------------------|
|------5-5----5-5-5-5-5----5-5-5-5-5----5-5-5-5-5--5-5-5--------------------|

Chorus 

|---------------------------------------------------------------------------|
|---------------------------------------------------------------------------|
|---------------------------------------------------------------------------|
|----0--------0--------7--------7--------9--------9--------5--------7-------|
|----0--------0--------7--------7--------9--------9--------5--------7-------|
|----0--------0--------7--------7--------9--------9--------5--------7-------|


Verse 2

|---------------------------------------------------------------------------|
|---------------------------------------------------------------------------|
|---------------------------------------------------------------------------|
|------9-9--9-9-9-12-12---12-12-12-11-11---11-11-11-12-12----12-12-12-------|
|------9-9--9-9-9-9--9----9--9--9--9--9----9--9--9--9--9-----9--9--9--------|
|------9-9--9-9-9-9--9----9--9--9--9--9----9--9--9--9--9-----9--9--9--------|

|---------------------------------------------------------------------------|
|---------------------------------------------------------------------------|
|-------------7-7-7-6-6----6-6-6-7-7----7-7-7-6-6--6-6-6--------------------|
|------5-5----5-5-5-5-5----5-5-5-5-5----5-5-5-5-5--5-5-5--------------------| guitar 2 comes in 
|------5-5----5-5-5-5-5----5-5-5-5-5----5-5-5-5-5--5-5-5--------------------|
|------5-5----5-5-5-5-5----5-5-5-5-5----5-5-5-5-5--5-5-5--------------------|

|---------------------------------------------------------------------------|
|---------------------------------------------------------------------------|
|---------------------------------------------------------------------------|
|------9-9--9-9-9-12-12---12-12-12-11-11---11-11-11-12-12----12-12-12-------|
|------9-9--9-9-9-9--9----9--9--9--9--9----9--9--9--9--9-----9--9--9--------|
|------9-9--9-9-9-9--9----9--9--9--9--9----9--9--9--9--9-----9--9--9--------|

|---------------------------------------------------------------------------|
|---------------------------------------------------------------------------|
|-------------7-7-7-6-6----6-6-6-7-7----7-7-7-6-6--6-6-6--------------------|
|------5-5----5-5-5-5-5----5-5-5-5-5----5-5-5-5-5--5-5-5--------------------|
|------5-5----5-5-5-5-5----5-5-5-5-5----5-5-5-5-5--5-5-5--------------------|
|------5-5----5-5-5-5-5----5-5-5-5-5----5-5-5-5-5--5-5-5--------------------|

Guitar 2

played 3x
|---------------------------------------------------------------------------|
|---------------------------------------------------------------------------|
|------11p7-9p7-9p7-6/7-9p7-9p7-11p7-9p7-9p7-6/7-9p7-9p7--------------------|
|---------------------------------------------------------------------------|
|---------------------------------------------------------------------------|
|---------------------------------------------------------------------------|

Chorus 

played 2x
|---------------------------------------------------------------------------|
|---------------------------------------------------------------------------|
|---------------------------------------------------------------------------|
|----0--------0--------7--------7--------9--------9--------5--------7-------|
|----0--------0--------7--------7--------9--------9--------5--------7-------|
|----0--------0--------7--------7--------9--------9--------5--------7-------|

Bridge 

Guitar 1


|---------------------------------------------------------------------------|
|---------------------------------------------------------------------------|
|---------------------------------------------------------------------------|
|----9-----------------9--5--------------5----------------------------------|
|----9-----------------9--5--------------5----------------------------------|
|----9-----------------9--5--------------5----------------------------------|

|---------------------------------------------------------------------------|
|---------------------------------------------------------------------------|
|---------------------------------------------------------------------------|
|----9-----------------9--5--------------5----------------------------------|
|----9-----------------9--5--------------5----------------------------------|
|----9-----------------9--5--------------5----------------------------------|

|---------------------------------------------------------------------------|
|---------------------------------------------------------------------------|
|---------------------------------------------------------------------------|
|----9-----------------9--5--------------5----------------------------------|
|----9-----------------9--5--------------5----------------------------------|
|----9-----------------9--5--------------5----------------------------------|

|---------------------------------------------------------------------------|
|---------------------------------------------------------------------------|
|---------------------------------------------------------------------------|
|----9-----------------9--5555555577777777----------------------------------|
|----9-----------------9--5555555577777777----------------------------------|
|----9-----------------9--5555555577777777----------------------------------|

|---------------------------------------------------------------------------|
|---------------------------------------------------------------------------|
|---------------------------------------------------------------------------|
|----0--------0--------7--------7--------9--------9--------5--------7-------| guitar 2 comes in
|----0--------0--------7--------7--------9--------9--------5--------7-------|
|----0--------0--------7--------7--------9--------9--------5--------7-------|
                                                                              
Guitar 2                                                                       
|----14h15p14-14-------------------|    |14-14-14h17----|                       
|----------------------------------|    |---------------|                      
|----------------------------------|8x  |---------------|4x                   
|----------------------------------|    |---------------|                    
|----------------------------------|    |---------------|  
|----------------------------------|    |---------------|  

Chorus

Guitar 1

|---------------------------------------------------------------------------|
|---------------------------------------------------------------------------|
|---------------------------------------------------------------------------|
|----0--------0--------7--------7--------9--------9--------5--------7-------|
|----0--------0--------7--------7--------9--------9--------5--------7-------|
|----0--------0--------7--------7--------9--------9--------5--------7-------|

|---------------------------------------------------------------------------|
|---------------------------------------------------------------------------|
|---------------------------------------------------------------------------|
|----0--------0--------7--------7--------9--------9--------5--------7-----0-|
|----0--------0--------7--------7--------9--------9--------5--------7-----0-|
|----0--------0--------7--------7--------9--------9--------5--------7-----0-|

Guitar 2

|--14-14-14-14-14-14-14-14-14-15-15-15-12-12-12-12-12-12-12-12-12-14-14-14--|
|---------------------------------------------------------------------------|
|---------------------------------------------------------------------------|
|---------------------------------------------------------------------------|
|---------------------------------------------------------------------------|
|---------------------------------------------------------------------------|

|--10-10-10-10-10-10-12-12-10-10-9-10-9-10-10-10-10-10-10-12-12-12-15-15-15-|
|---------------------------------------------------------------------------|
|---------------------------------------------------------------------------|
|---------------------------------------------------------------------------|
|---------------------------------------------------------------------------|
|---------------------------------------------------------------------------|

|--14-14-14-14-14-14-14-14-14-15-15-15-12-12-12-12-12-12-12-12-12-14-14-14--|
|---------------------------------------------------------------------------|
|---------------------------------------------------------------------------|
|---------------------------------------------------------------------------|
|---------------------------------------------------------------------------|
|---------------------------------------------------------------------------|

|--10-10-10-10-10-10-12-12-10-10-9-10-9-10-10-10-10-10-10-12-12-12-12-12-12-|
|---------------------------------------------------------------------------|
|---------------------------------------------------------------------------|
|---------------------------------------------------------------------------|
|---------------------------------------------------------------------------|
|---------------------------------------------------------------------------|


|--14-----------------------------------------------------------------------|
|---------------------------------------------------------------------------|
|---------------------------------------------------------------------------|
|---------------------------------------------------------------------------|
|---------------------------------------------------------------------------|
|---------------------------------------------------------------------------|


=============================================================================
comments
print report bad tab
I want to post or [tab]
guest
You may want to rate the tab now too:
select rating
Please do not post tabs as comments. Select "correction" instead!