Oops, an error
Loading. Please wait.

Effigy Of Death Tab

ver1
ver1

Whole song

Interactive

More versions @911Tabs.com
3,621 views 12 this week
no commentswrite comment
1 2 3 4 5
excellent!
x 4
Autoscroll
+/-
esc
set tempo
stop
Contributor
Hey! There's an official Ultimate Guitar app which is ideal
for learning songs when you're away from computer. Get the app
WARNING: You are trying to view
                                    content from Ultimate-Guitar.com
                                    in an unauthorized application,
                                    which is prohibited.

                                    Please use an official Ultimate
                                    Guitar Tabs application for iPhone,
                                    iPad or Android to access legitimate
                                    chords, guitar, bass, and drum tabs
                                    from Ultimate-Guitar.com database.

                                    Type "ultimate guitar tabs" in Apple
                                    App Store's or Android Market's
                                    search to find the application.
-------------------------------------------------------------------------------
                         Effigy of Death - The Red Shore
-------------------------------------------------------------------------------
Tabbed by: mike0
Email: mikesbuffaloes@hotmail.com

Tuning: Drop B

Hey, this is my tab of effigy of death by the red shore im not the best at tabbing so 
a bit sloppy at parts,
also i left the palm mutes but its pretty obvious where they go so you should be able to work
that out.

C#|------------------------------------------------------------------------------|
G#|------------------------------------------------------------------------------|
E|---------------------------------------------10101010--12121212----------------|
B|---7-5---5----------------------888888888----xxxxxxxx--xxxxxxxx----------------|
F#|------8---8-7-5-7-8-7-8-7-5-0--888888888----88888888--10101010----------------|
B|--------------------------------888888888--------------------------------------|

C#|--------------------------------------------------------------------------|
G#|--------------------------------------------------------------------------|
E|---------------------------------------------10101010101010----------------|
B|---7-5---5----------------------888888888----xxxxxxxxxxxxxx----------------|
F#|------8---8-7-5-7-8-7-8-7-5-0--888888888----88888888888888----------------|
B|--------------------------------888888888----------------------------------|

C#|------------------------------------------------------------------------------|
G#|------------------------------------------------------------------------------|
E|---------------------------------------------10101010--12121212----------------|
B|---7-5---5----------------------888888888----xxxxxxxx--xxxxxxxx----------------|
F#|------8---8-7-5-7-8-7-8-7-5-0--888888888----88888888--10101010----------------|
B|--------------------------------888888888--------------------------------------|

C#|--------------------------------------------------------------------------|
G#|--------------------------------------------------------------------------|
E|---------------------------------------------10101010101010----------------|
B|---7-5---5----------------------888888888----xxxxxxxxxxxxxx----------------|
F#|------8---8-7-5-7-8-7-8-7-5-0--888888888----88888888888888----------------|
B|--------------------------------888888888----------------------------------|

C#---------------------------------------------------------------------------|
G#---------------------------------------------------------------------------|
E|----------------------------------------10101010--12121212-----------------|
B|---7-5----------------------888888888---xxxxxxxx--xxxxxxxx-----------------|
F#|-------7--5-7-8-7-8-7-5-0--888888888---88888888--10101010-----------------|
B|--0-0-0---0-----------------888888888--------------------------------------|

C#---------------------------------------------------------------------------|
G#---------------------------------------------------------------------------|
E|----------------------------------------10101010101010---------------------|
B|---7-5----------------------888888888---xxxxxxxxxxxxxx---------------------|
F#|-------7--5-7-8-7-8-7-5-0--888888888---88888888888888---------------------|
B|--0-0-0---0-----------------888888888--------------------------------------|

C#---------------------------------------------------------------------------|
G#---------------------------------------------------------------------------|
E|----------------------------------------10101010--12121212-----------------|
B|---7-5----------------------888888888---xxxxxxxx--xxxxxxxx-----------------|
F#|-------7--5-7-8-7-8-7-5-0--888888888---88888888--10101010-----------------|
B|--0-0-0---0-----------------888888888--------------------------------------|

C#---------------------------------------------------------------------------|
G#---------------------------------------------------------------------------|
E|----------------------------------------10101010101010---------------------|
B|---7-5----------------------888888888---xxxxxxxxxxxxxx---------------------|
F#|-------7--5-7-8-7-8-7-5-0--888888888---88888888888888---------------------|
B|--0-0-0---0-----------------888888888--------------------------------------|

C#---------------------------------------------------------------------------|
G#----4444444444444444444444444444-------------------------------------------|
E|----7777777777777777777777777777-------------------------------------------|
B|---------------------------------------------------------------------------|
F#|--------------------------------------------------------------------------|
B|---------------------------------------------------------------------------|

C#|--------------------------------------------------------------------------|
G#|------444-----------444----------444----------444---------444-------------|
E|-------777-----------777----------777----------777---------777----777------|
B|--0000------00000000-----00000000-----00000000-----00000000----000---------|
F#|-0000------00000000-----00000000-----00000000-----00000000----000---------|
B---0000------00000000-----00000000-----00000000-----00000000----000---------|

C#|--------------------------------------------------------------------------|
G#|-----444---------444-------------444--------------------------------------|
E|------777---------777-----777-----777--------------------------------------|
B|--000-----00000000----000-----000-----00000000-----------------------------|
F#|-000-----00000000----000-----000-----00000000-----------------------------|
B|--000-----00000000----000-----000-----00000000-----------------------------|

C#---------------------------------------------------------------------------|
G#---------------------------------------------------------------------------|
E|----------------------------------------10101010--12121212-----------------|
B|---7-5----------------------888888888---xxxxxxxx--xxxxxxxx-----------------|
F#|-------7--5-7-8-7-8-7-5-0--888888888---88888888--10101010-----------------|
B|--0-0-0---0-----------------888888888--------------------------------------|

C#---------------------------------------------------------------------------|
G#---------------------------------------------------------------------------|
E|----------------------------------------10101010101010---------------------|
B|---7-5----------------------888888888---xxxxxxxxxxxxxx---------------------|
F#|-------7--5-7-8-7-8-7-5-0--888888888---88888888888888---------------------|
B|--0-0-0---0-----------------888888888--------------------------------------|

C#---------------------------------------------------------------------------|
G#---------------------------------------------------------------------------|
E|----------------------------------------10101010--12121212-----------------|
B|---7-5----------------------888888888---xxxxxxxx--xxxxxxxx-----------------|
F#|-------7--5-7-8-7-8-7-5-0--888888888---88888888--10101010-----------------|
B|--0-0-0---0-----------------888888888--------------------------------------|

C#---------------------------------------------------------------------------|
G#---------------------------------------------------------------------------|
E|----------------------------------------10101010101010---------------------|
B|---7-5----------------------888888888---xxxxxxxxxxxxxx---------------------|
F#|-------7--5-7-8-7-8-7-5-0--888888888---88888888888888---------------------|
B|--0-0-0---0-----------------888888888--------------------------------------|


C#|--------------------------------------------------------------------------|
G#|--------------------------------------------------------------------------|
E|---------------------------------------------------------------------------|
B|---3333333-555555555--777555888777555333555222-3333333-555555555-----------|
F#|--1111111-333333333---------------------------1111111-333333333-----------|
B|---------------------------------------------------------------------------|

C#|--------------------------------------------------------------------------|
G#|--------------------------------------------------------------------------|
E|---------------------------------------------------------------------------|
B|--77755588877710101088877755-3333333-5555555--0000000000000000-------------|
F#|----------------------------1111111-3333333--0000000000000000-------------|
B|----------------------------------------------0000000000000000-------------|

C#|--------------------------------------------------------------------------|
G#|--------------------------------------------------------------------------|
E|---------------------------------------------------------------------------|
B|--3333333-5555555-00000-00000-00000-00000-00000-00000-00000-00000-00000----|
F#|-1111111-3333333-00000-00000-00000-00000-00000-00000-00000-00000-00000----|
B|------------------00000-00000-00000-00000-00000-00000-00000-00000-00000----|

C#|--------------------------------------------------------------------------|
G#|--6--6--6--5--5--5--3--3--3--5--5--5--------------------------------------|
E|----7--7--7--5--5--5--3--3--3--5--5--5-----x2------------------------------|
B|-----7--7-----7--7-----5--5-----7--7---------------------------------------|
F#|--------------------------------------------------------------------------|
B|---------------------------------------------------------------------------|

C#|----------88888---------88888---------55555-------------------------------|
G#|--6-66-66-66666-5-55-55-55555---------55555-5-55-55-55555-----------------|
E|---7-77-77-77777-7-77-77-77777-7-77-77-77777-7-77-77-77777------x2---------|
B|---7-77-77-77777-7-77-77-77777-7-77-77-77777-7-77-77-77777-----------------|
F#|--------------------------------------------------------------------------|
B|---------------------------------------------------------------------------|

C#|--------------------------------------------------------------------------|
G#|--------------------------------------------------------------------------|
E|--10101010101010-999999999999-77777777777-999999999999999-------x4---------|
B|--xxxxxxxxxxxxxx-xxxxxxxxxxxxx-xxxxxxxxxxx-xxxxxxxxxxxxxxxx----------------|
F#|-88888888888888-777777777777-55555555555-777777777777777------------------|
B|---------------------------------------------------------------------------|

C#|--------------------------------------------------------------------------|
G#|--------------------------------------------------------------------------|
E|---------------------------------------------------------------------------|
B|---------------------------1-00--------------------------------------------|
F#|--------------------------1-00--------------------------------------------|
B|-0000000-1-00-2~-00000000--1-00-2ph----------------------------------------|

C#|--------------------------------------------------------------------------|
G#|--------------------------------------------------------------------------|
E|------------------------------------------------------------------x5-------|
B|-------------------------1-00----------------------------1-00--------------|
F#|------------------------1-00----------------------------1-00--------------|
B|-0-00-00-0-00-00-0-00-00-1-00-2~-0-00-00-0-00-00-0-00-00-1-00-2ph----------|

|ph pinch harmonic
| /  slide up
| \  slide down
| h  hammer-on
| p  pull-off
| ~  vibrato
| +  harmonic
| x  Mute note
===============================================================================
comments
print report bad tab
I want to post or [tab]
guest
You may want to rate the tab now too:
select rating
Please do not post tabs as comments. Select "correction" instead!