Oops, an error
Loading. Please wait.

Reach For The Skies Tab

932 views 3 this week
no commentswrite comment
1 2 3 4 5
please rate
add to favorites launch autoscroll
font size
0
reset
Autoscroll
+/-
esc
set tempo
stop
Difficulty
Tuning
intermediate
C G C F A D
WARNING: You are trying to view
                                    content from Ultimate-Guitar.com
                                    in an unauthorized application,
                                    which is prohibited.

                                    Please use an official Ultimate
                                    Guitar Tabs application for iPhone,
                                    iPad or Android to access legitimate
                                    chords, guitar, bass, and drum tabs
                                    from Ultimate-Guitar.com database.

                                    Type "ultimate guitar tabs" in Apple
                                    App Store's or Android Market's
                                    search to find the application.
Reach For The Skies
The Sorrow
The Sorrow

Drop C - CGCFAD


-Intro- x10
Andi
D|------------------------------------------------------------------------|
A|----t15p11p10p8h10h11--t15p11p10p8h10h11--t15p11p10p8h10h11-------------|
F|------------------------------------------------------------------------|
C|------------------------------------------------------------------------|
G|------------------------------------------------------------------------|
C|------------------------------------------------------------------------|

Matze
D|----------------------------------------------------------------------|
A|----------------------------------------------------------------------|
F|----------------------------------------------------------------------|
C|-5~~~~--------------0~~-----1~~------5~~~~---------8~~------1~~-------|
G|-5~~~~--------------0~~-----1~~------5~~~~---------8~~------1~~-------|
C|-5~~~~--------------0~~-----1~~------5~~~~---------8~~------1~~-------|x2


Andi - x10
D|------------------------------------------------------------------------|
A|----t15p11p10p8h10h11--t15p11p10p8h10h11--t15p11p10p8h10h11-------------|
F|------------------------------------------------------------------------|
C|------------------------------------------------------------------------|
G|------------------------------------------------------------------------|
C|------------------------------------------------------------------------|

Matze
D|---------------------------------------------------------------------|
A|---------------------------------------------------------------------|
F|---------------------------------------------------------------------|
C|---------------------------------------------------------------------|
G|--5-5-5-5-5--555--5-5-5-5-5--000--1-1-1-1-1--111--1-1-1-1-1--333-----|
C|--5-5-5-5-5--555--5-5-5-5-5--000--1-1-1-1-1--111--1-1-1-1-1--333-----|
P.M . . . . .  ...  . . . . .  ...  . . . . .  ...  . . . . .  ...

Matze
D|---------------------------------------------------------------------|
A|---------------------------------------------------------------------|
F|---------------------------------------------------------------------|
C|---------------------------------------------------------------------|
G|--5-5-5-5-5--555--5-5-5-5-5--888--1-1-1-1-1--111--0-0-0-0-0--000-----|
C|--5-5-5-5-5--555--5-5-5-5-5--888--1-1-1-1-1--111--0-0-0-0-0--000-----|
P.M . . . . .  ...  . . . . .  ...  . . . . .  ...  . . . . .  ...

Matze
D|---------------------------------------------------------------------|
A|---------------------------------------------------------------------|
F|---------------------------------------------------------------------|
C|---------------------------------------------------------------------|
G|--5-5-5-5-5--555--5-5-5-5-5--000--1-1-1-1-1--111--0-0-0-0-0--000-----|
C|--5-5-5-5-5--555--5-5-5-5-5--000--1-1-1-1-1--111--0-0-0-0-0--000-----|
P.M . . . . .  ...  . . . . .  ...  . . . . .  ...  . . . . .  ...

-Pre-verso-
Andi
D|-----------------------------------------------------------------------|
A|-----------------------------------------------------------------------|
F|-----------------------------------------------------------------------|
C|-7-----6-----4-----2-----------------7-----6-----4-----2---------------|
G|--------------------------3h5p3p0-----------------------------3h5p3p0--|
C|---000---000---000---000---------------000---000---000---000-----------|
P.M  ...   ...   ...   ...               ...   ...   ...   ...

Matze
D|-----------------------------------------------------------------------|
A|-----------------------------------------------------------------------|
F|-----------------------------------------------------------------------|
C|-0-----0-----0-----------------------0------0------0-------------------|
G|-0-----0-----0-----------------------0------0------0-------------------|
C|-0-----0-----0-----------------------0------0------0-------------------|

Andi
D|-----------------------------------------------------------------------|
A|-----------------------------------------------------------------------|
F|-----------------------------------------------------------------------|
C|-7-----6-----4-----2-----------------7-----6-----4---------------------|
G|--------------------------3h5p3p0-----------------------3h5------5h7---|
C|---000---000---000---000---------------000---000---000-------00--------|
P.M  ...   ...   ...   ...               ...   ...   ...       ..

Matze
D|-----------------------------------------------------------------------|
A|-----------------------------------------------------------------------|
F|-----------------------------------------------------------------------|
C|-0~~~~~~~~~~~~~~~~~~~~~~~~~~~~~~~~~--0---------------------------------|
G|-0~~~~~~~~~~~~~~~~~~~~~~~~~~~~~~~~~--0------------------7h9------9h11--|
C|-0~~~~~~~~~~~~~~~~~~~~~~~~~~~~~~~~~--0-----------------------00--------|


-Verso-
Andi
D|-----------------------------------------------------------------------|
A|-----------------------------------------------------------------------|
F|-----------------------------------------------------------------------|
C|-7-----6-----4-----2-----------------7-----6-----4-----2---------------|
G|--------------------------3h5p3p0-----------------------------3h5p3p0--|
C|---000---000---000---000---------------000---000---000---000-----------|
P.M  ...   ...   ...   ...               ...   ...   ...   ...

Matze
D|-----------------------------------------------------------------------|
A|-----------------------------------------------------------------------|
F|-----------------------------------------------------------------------|
C|-7-----6-----4-----2-----------------7-----6-----4-----2---------------|
G|--------------------------3h5p3p0-----------------------------3h5p3p0--|
C|---000---000---000---000---------------000---000---000---000-----------|
P.M  ...   ...   ...   ...               ...   ...   ...   ...

Andi
D|-----------------------------------------------------------------------|
A|-----------------------------------------------------------------------|
F|-----------------------------------------------------------------------|
C|-7-----6-----4-----2-----------------7-----6-----4---------------------|
G|--------------------------3h5p3p0-----------------------3h5------5h7---|
C|---000---000---000---000---------------000---000---000-------00--------|
P.M  ...   ...   ...   ...               ...   ...   ...       ..

Matze
D|-----------------------------------------------------------------------|
A|-----------------------------------------------------------------------|
F|-----------------------------------------------------------------------|
C|-7-----6-----4-----2-----------------7-----6-----4---------------------|
G|--------------------------3h5p3p0-----------------------7h9------9h11--|
C|---000---000---000---000---------------000---000---000-------00--------|
P.M  ...   ...   ...   ...               ...   ...   ...       ..

Andi
D|-----------------------------------------------------------------------|
A|-----------------------------------------------------------------------|
F|-----------------------------------------------------------------------|
C|-7-----6-----4-----2-----------------7-----6-----4-----2---------------|
G|--------------------------3h5p3p0-----------------------------3h5p3p0--|
C|---0-0---0-0---0-0---0-0---------------0-0---0-0---0-0---0-0-----------|
P.M  . .   . .   . .   . .               . .   . .   . .   . .

Matze
D|-----------------------------------------------------------------------|
A|-----------------------------------------------------------------------|
F|-----------------------------------------------------------------------|
C|11-----9-----7-----6---------------11------9-----7-----6---------------|
G|--------------------------7h9p7p0-----------------------------7h9p7p0--|
C|---0-0---0-0---0-0---0-0---------------0-0---0-0---0-0---0-0-----------|
P.M  . .   . .   . .   . .               . .   . .   . .   . .

Andi
D|-----------------------------------------------------------------------|
A|-----------------------------------------------------------------------|
F|-----------------------------------------------------------------------|
C|-7-----6-----4-----2-----------------7-----6-----4---------------------|
G|--------------------------3h5p3p0-----------------------3h5------5h7---|
C|---0-0---0-0---0-0---0-0---------------0-0---0-0---0-0-------00--------|
P.M  . .   . .   . .   . .               . .   . .   . .       ..

Matze
D|-----------------------------------------------------------------------|
A|-----------------------------------------------------------------------|
F|-----------------------------------------------------------------------|
C|11-----9-----7-----6---------------11------9-----7---------------------|
G|--------------------------7h9p7p0-----------------------7h9------9h11--|
C|---0-0---0-0---0-0---0-0---------------0-0---0-0---0-0-------00--------|
P.M  . .   . .   . .   . .               . .   . .   . .       ..

-Pre-coro-
Andi & Matze
D|--------------------------------------------------|
A|--------------------------------------------------|
F|-5------------5-----------5------------5------7---|
C|-5------------5-----------5------------5------7---|
G|-3--0-0000-0--3--0-0000---3--0-0000-0--3--00--5---|
C|----0-0000-0-----0-0000------0-0000-0-----00------|x2
P.M   . .... .     . ....      . .... .     ..

Andi & Matze
D|----------------------------------------------------|
A|----------------------------------------------------|
F|-5-------------5-----------5-------------5------7---|
C|-5-------------5-----------5-------------5------7---|
G|-3--0-0000-0~--3--0-0000~--3--0-0000-0~--3--00--5---|
C|----0-0000-0~-----0-0000~-----0-0000-0~-----00------|
P.M   . .... .      . ....      . .... .      ..

Andi & Matze
D|----------------------------------------------------------------------|
A|----------------------------------------------------------------------|
F|-5-------------5-----------5-------------5------7------5--------------|
C|-5-------------5-----------5-------------5------7------5--------------|
G|-3--0-0000-0~--3--0-0000~--3--0-0000-0~--3--00--5--00--3--0~-0~---\12-|
C|----0-0000-0~-----0-0000~-----0-0000-0~-----00-----00-----0~-0~---\12-|
P.M   . .... .      . ....      . .... .      ..     ..     .  .

-Coro-
Andi
D|--------------------------------------------------------------|
A|--6~--------6~--------8~--------10~--------8~-------8~--------|
F|----9~--------9~--------9~---------9~------------9~-----------|
C|------10~-------10~-------10~--------10~------10~-------------|
G|--------------------------------------------------------------|
C|--------------------------------------------------------------|x4

Matze
D|-------------------------------------------------------------------|
A|-------------------------------------------------------------------|
F|-------------------------------------------------------------------|
C|-3-3-3-3-3-3-3-3-3-3-3-3-3-3-3-3--0-0-0-0-0-0-0-0-0-0-0-0-0-0-0----|
G|-3-3-3-3-3-3-3-3-3-3-3-3-3-3-3-3--0-0-0-0-0-0-0-0-0-0-0-0-0-0-0----|
C|-3-3-3-3-3-3-3-3-3-3-3-3-3-3-3-3--0-0-0-0-0-0-0-0-0-0-0-0-0-0-0----|

D|-------------------------------------------------------------------|
A|-------------------------------------------------------------------|
F|-3-3-3-3-3-3-3-3-3-3-3-3-3-3-3-3-----------------------------------|
C|-3-3-3-3-3-3-3-3-3-3-3-3-3-3-3-3--5-5-5-5-5-5-5-5-5-5-5-5-5-5-5----|
G|-1-1-1-1-1-1-1-1-1-1-1-1-1-1-1-1--5-5-5-5-5-5-5-5-5-5-5-5-5-5-5----|
C|----------------------------------5-5-5-5-5-5-5-5-5-5-5-5-5-5-5----|

Andi
D|--------------------------------------------------------------|
A|--6~--------6~--------8~--------10~--------8~-------8~--------|
F|----9~--------9~--------9~---------9~------------9~-----------|
C|------10~-------10~-------10~--------10~------10~-------------|
G|--------------------------------------------------------------|
C|--------------------------------------------------------------|x3

Matze
D|-------------------------------------------------------------------|
A|-------------------------------------------------------------------|
F|-------------------------------------------------------------------|
C|-3-3-3-3-3-3-3-3-3-3-3-3-3-3-3-3--0-0-0-0-0-0-0-0-0-0-0-0-0-0-0----|
G|-3-3-3-3-3-3-3-3-3-3-3-3-3-3-3-3--0-0-0-0-0-0-0-0-0-0-0-0-0-0-0----|
C|-3-3-3-3-3-3-3-3-3-3-3-3-3-3-3-3--0-0-0-0-0-0-0-0-0-0-0-0-0-0-0----|

D|----------------------------------|
A|----------------------------------|
F|-3-3-3-3-3-3-3-3-3-3-3-3-3-3-3-3--|
C|-3-3-3-3-3-3-3-3-3-3-3-3-3-3-3-3--|
G|-1-1-1-1-1-1-1-1-1-1-1-1-1-1-1-1--|
C|----------------------------------|

Andi
D|--------------------------------------------------|
A|--------------------------------------------------|
F|------14-14-------12-12-------10-10-------9-9-----|
C|-------X--X--------X--X--------X--X-------X-X-----|
G|-0-0--12-12--0-0--10-10--0-0---8--8--0-0--7-7-----|
C|-0-0---------0-0---------0-0---------0-0----------|

Matze
D|--------------------------------------------------|
A|--------------------------------------------------|
F|------10-10-------9-9-------7-7-------5-5---------|
C|-------X--X-------X-X-------X-X-------X-X---------|
G|-0-0---8--8--0-0--7-7--0-0--5-5--0-0--3-3---------|
C|-0-0---------0-0-------0-0-------0-0--------------|

-Verso- x2
Andi
D|-----------------------------------------------------------------------|
A|-----------------------------------------------------------------------|
F|-----------------------------------------------------------------------|
C|-7-----6-----4-----2-----------------7-----6-----4-----2---------------|
G|--------------------------3h5p3p0-----------------------------3h5p3p0--|
C|---000---000---000---000---------------000---000---000---000-----------|
P.M  ...   ...   ...   ...               ...   ...   ...   ...

Matze
D|-----------------------------------------------------------------------|
A|-----------------------------------------------------------------------|
F|-----------------------------------------------------------------------|
C|-7-----6-----4-----2-----------------7-----6-----4-----2---------------|
G|--------------------------3h5p3p0-----------------------------3h5p3p0--|
C|---000---000---000---000---------------000---000---000---000-----------|
P.M  ...   ...   ...   ...               ...   ...   ...   ...

Andi
D|-----------------------------------------------------------------------|
A|-----------------------------------------------------------------------|
F|-----------------------------------------------------------------------|
C|-7-----6-----4-----2-----------------7-----6-----4---------------------|
G|--------------------------3h5p3p0-----------------------3h5------5h7---|
C|---000---000---000---000---------------000---000---000-------00--------|
P.M  ...   ...   ...   ...               ...   ...   ...       ..

Matze
D|-----------------------------------------------------------------------|
A|-----------------------------------------------------------------------|
F|-----------------------------------------------------------------------|
C|-7-----6-----4-----2-----------------7-----6-----4---------------------|
G|--------------------------3h5p3p0-----------------------7h9------9h11--|
C|---000---000---000---000---------------000---000---000-------00--------|
P.M  ...   ...   ...   ...               ...   ...   ...       ..

-Verso II-
Andi
D|-----------------------------------------------------------------------|
A|-----------------------------------------------------------------------|
F|-----------------------------------------------------------------------|
C|-7-----6-----4-----2-----------------7-----6-----4-----2---------------|
G|--------------------------3h5p3p0-----------------------------3h5p3p0--|
C|---0-0---0-0---0-0---0-0---------------0-0---0-0---0-0---0-0-----------|
P.M  . .   . .   . .   . .               . .   . .   . .   . .

Matze
D|-----------------------------------------------------------------------|
A|-----------------------------------------------------------------------|
F|-----------------------------------------------------------------------|
C|11-----9-----7-----6---------------11------9-----7-----6---------------|
G|--------------------------7h9p7p0-----------------------------7h9p7p0--|
C|---0-0---0-0---0-0---0-0---------------0-0---0-0---0-0---0-0-----------|
P.M  . .   . .   . .   . .               . .   . .   . .   . .

Andi
D|-----------------------------------------------------------------------|
A|-----------------------------------------------------------------------|
F|-----------------------------------------------------------------------|
C|-7-----6-----4-----2-----------------7-----6-----4---------------------|
G|--------------------------3h5p3p0-----------------------3h5------5h7---|
C|---0-0---0-0---0-0---0-0---------------0-0---0-0---0-0-------00--------|
P.M  . .   . .   . .   . .               . .   . .   . .       ..

Matze
D|-----------------------------------------------------------------------|
A|-----------------------------------------------------------------------|
F|-----------------------------------------------------------------------|
C|11-----9-----7-----6---------------11------9-----7---------------------|
G|--------------------------7h9p7p0-----------------------7h9------9h11--|
C|---0-0---0-0---0-0---0-0---------------0-0---0-0---0-0-------00--------|
P.M  . .   . .   . .   . .               . .   . .   . .       ..

-Pre-coro-
Andi & Matze
D|--------------------------------------------------|
A|--------------------------------------------------|
F|-5------------5-----------5------------5------7---|
C|-5------------5-----------5------------5------7---|
G|-3--0-0000-0--3--0-0000---3--0-0000-0--3--00--5---|
C|----0-0000-0-----0-0000------0-0000-0-----00------|x2
P.M   . .... .     . ....      . .... .     ..

Andi & Matze
D|----------------------------------------------------|
A|----------------------------------------------------|
F|-5-------------5-----------5-------------5------7---|
C|-5-------------5-----------5-------------5------7---|
G|-3--0-0000-0~--3--0-0000~--3--0-0000-0~--3--00--5---|
C|----0-0000-0~-----0-0000~-----0-0000-0~-----00------|
P.M   . .... .      . ....      . .... .      ..

Andi & Matze
D|----------------------------------------------------------------------|
A|----------------------------------------------------------------------|
F|-5-------------5-----------5-------------5------7------5------7-------|
C|-5-------------5-----------5-------------5------7------5------7-------|
G|-3--0-0000-0~--3--0-0000~--3--0-0000-0~--3--00--5--00--3--00--5--000--|
C|----0-0000-0~-----0-0000~-----0-0000-0~-----00-----00-----00-----000--|
P.M   . .... .      . ....      . .... .      ..     ..     ..     ...

-Coro-
Andi
D|--------------------------------------------------------------|
A|--6~--------6~--------8~--------10~--------8~-------8~--------|
F|----9~--------9~--------9~---------9~------------9~-----------|
C|------10~-------10~-------10~--------10~------10~-------------|
G|--------------------------------------------------------------|
C|--------------------------------------------------------------|x4

Matze
D|-------------------------------------------------------------------|
A|-------------------------------------------------------------------|
F|-------------------------------------------------------------------|
C|-3-3-3-3-3-3-3-3-3-3-3-3-3-3-3-3--0-0-0-0-0-0-0-0-0-0-0-0-0-0-0----|
G|-3-3-3-3-3-3-3-3-3-3-3-3-3-3-3-3--0-0-0-0-0-0-0-0-0-0-0-0-0-0-0----|
C|-3-3-3-3-3-3-3-3-3-3-3-3-3-3-3-3--0-0-0-0-0-0-0-0-0-0-0-0-0-0-0----|

D|-------------------------------------------------------------------|
A|-------------------------------------------------------------------|
F|-3-3-3-3-3-3-3-3-3-3-3-3-3-3-3-3-----------------------------------|
C|-3-3-3-3-3-3-3-3-3-3-3-3-3-3-3-3--5-5-5-5-5-5-5-5-5-5-5-5-5-5-5----|
G|-1-1-1-1-1-1-1-1-1-1-1-1-1-1-1-1--5-5-5-5-5-5-5-5-5-5-5-5-5-5-5----|
C|----------------------------------5-5-5-5-5-5-5-5-5-5-5-5-5-5-5----|

Andi
D|--------------------------------------------------------------|
A|--6~--------6~--------8~--------10~--------8~-------8~--------|
F|----9~--------9~--------9~---------9~------------9~-----------|
C|------10~-------10~-------10~--------10~------10~-------------|
G|--------------------------------------------------------------|
C|--------------------------------------------------------------|x3

Matze
D|-------------------------------------------------------------------|
A|-------------------------------------------------------------------|
F|-------------------------------------------------------------------|
C|-3-3-3-3-3-3-3-3-3-3-3-3-3-3-3-3--0-0-0-0-0-0-0-0-0-0-0-0-0-0-0----|
G|-3-3-3-3-3-3-3-3-3-3-3-3-3-3-3-3--0-0-0-0-0-0-0-0-0-0-0-0-0-0-0----|
C|-3-3-3-3-3-3-3-3-3-3-3-3-3-3-3-3--0-0-0-0-0-0-0-0-0-0-0-0-0-0-0----|

D|----------------------------------|
A|----------------------------------|
F|-3-3-3-3-3-3-3-3-3-3-3-3-3-3-3-3--|
C|-3-3-3-3-3-3-3-3-3-3-3-3-3-3-3-3--|
G|-1-1-1-1-1-1-1-1-1-1-1-1-1-1-1-1--|
C|----------------------------------|

Andi
D|--------------------------------------------------|
A|--------------------------------------------------|
F|------14-14-------12-12-------10-10-------9-9-----|
C|-------X--X--------X--X--------X--X-------X-X-----|
G|-0-0--12-12--0-0--10-10--0-0---8--8--0-0--7-7-----|
C|-0-0---------0-0---------0-0---------0-0----------|

Matze
D|--------------------------------------------------|
A|--------------------------------------------------|
F|------10-10-------9-9-------7-7-------5-5---------|
C|-------X--X-------X-X-------X-X-------X-X---------|
G|-0-0---8--8--0-0--7-7--0-0--5-5--0-0--3-3---------|
C|-0-0---------0-0-------0-0-------0-0--------------|

-Coro II- x6
Andi
D|--------------------------------------------------------------|
A|--6~--------6~--------8~--------10~--------8~-------8~--------|
F|----9~--------9~--------9~---------9~------------9~-----------|
C|------10~-------10~-------10~--------10~------10~-------------|
G|--------------------------------------------------------------|
C|--------------------------------------------------------------|x4

Matze
D|-------------------------------------------------------------------|
A|-------------------------------------------------------------------|
F|-------------------------------------------------------------------|
C|-3-3-3-3-3-3-3-3-3-3-3-3-3-3-3-3--0-0-0-0-0-0-0-0-0-0-0-0-0-0-0----|
G|-3-3-3-3-3-3-3-3-3-3-3-3-3-3-3-3--0-0-0-0-0-0-0-0-0-0-0-0-0-0-0----|
C|-3-3-3-3-3-3-3-3-3-3-3-3-3-3-3-3--0-0-0-0-0-0-0-0-0-0-0-0-0-0-0----|

D|-------------------------------------------------------------------|
A|-------------------------------------------------------------------|
F|-3-3-3-3-3-3-3-3-3-3-3-3-3-3-3-3-----------------------------------|
C|-3-3-3-3-3-3-3-3-3-3-3-3-3-3-3-3--5-5-5-5-5-5-5-5-5-5-5-5-5-5-5----|
G|-1-1-1-1-1-1-1-1-1-1-1-1-1-1-1-1--5-5-5-5-5-5-5-5-5-5-5-5-5-5-5----|
C|----------------------------------5-5-5-5-5-5-5-5-5-5-5-5-5-5-5----|
comments
We did not receive enough feedback on this tab! Please rate:
print report bad tab
1 2 3 4 5
I want to post or [tab]
guest
You may want to rate the tab now too:
select rating
Please do not post tabs as comments. Select "correction" instead!