Oops, an error
Loading. Please wait.

Saviour Welcome Home Tab

ver1
ver1

Whole song

Interactive

More versions @911Tabs.com
1,914 views 3 this week
no commentswrite comment
1 2 3 4 5
accurate
x 3
Autoscroll
+/-
esc
set tempo
stop
Contributor
Hey! There's an official Ultimate Guitar app which is ideal
for learning songs when you're away from computer. Get the app
WARNING: You are trying to view
                                    content from Ultimate-Guitar.com
                                    in an unauthorized application,
                                    which is prohibited.

                                    Please use an official Ultimate
                                    Guitar Tabs application for iPhone,
                                    iPad or Android to access legitimate
                                    chords, guitar, bass, and drum tabs
                                    from Ultimate-Guitar.com database.

                                    Type "ultimate guitar tabs" in Apple
                                    App Store's or Android Market's
                                    search to find the application.
Song:Savior Welcome Home 
Artist:The Sorrow
Album:Blessings From A Blackened Sky
DROP C TUNING CGCFAD


  INTRO guitar 2 Clean  0:00
|---------------------------------------|
|------------8--------------------------|
|-------11------11----11----------------|
|-12-12----12------10-------------------|
|---------------------------------------|
|---------------------------------------|

  1:09 guitar 2 distortion
|------------------------------------------------------------------|
|------------------------------------------------------------------|
|------------------------------------------------------------------| 
|-000-000-000---------000-000-444-444-444--------------------------|
|-000-000-000-8h9-4h6-000-000-444-444-444-10h12-14-12-12-10h12p10--|
|-000-000-000---------000-000-444-444-444--------------------------|
  ... ... ...         ... ... ... ... ...  
  

  1:20 guitar 1,2 distortion
|------------------------------------------------------------------|
|------------------------------------------------------------------|
|------------------------------------------------------------------| 
|-000-000-000---------000-000-444-444-444--------------------------|
|-000-000-000-8h9-4h6-000-000-444-444-444-10h12-14-12-12-10h12p10--|
|-000-000-000---------000-000-444-444-444--------------------------|
  ... ... ...         ... ... ... ... ...  

|-0~--------------------------|
|-0~--------------------------|
|-0~--------------------------| 
|-0~--------------------------|
|-----------------------------|
|-----------------------------|
  
  pickslide
|-----------------------------|
|-----------------------------|
|-----------------------------| 
|----//////////////////-------|
|---//////////////////--------|
|--//////////////////---------|



  1:47 guitar 1,2
|----------------------------------------------------------|
|----------------------------------------------------------|
|----------------------------------------------------------| 
|----------------------------------------------------------|x2
|-8----7h8-----5-3-------------8-----7h8-----10-8-7-8-7-5--|
|---000----000-----3h5p3p1h3p1---000-----000---------------|
    ...    ...                   ...     ...


  1:58 guitar 1
|----------------------------------------------------------------------------------------------|
|----------------------------------------------------------------------------------------------|
|----------------------------------------------------------------------------------------------| 
|-------------------------------0000-0000-----------------------------------------------0-0-0--|
|-1212121212101212121212-888777-0000-0000-1212121212101212121212-1313131313121212121210-0-0-0--|
|-------------------------------0000-0000-----------------------------------------------0-0-0--|
                                .... ....                                               . . .
                                                  

                                              

  1:58 guitar 2
|------------------------------------------------------------------|
|------------------------------------------------------------------|
|------------------------------------------------------------------| 
|--------------------0000-0000------------------------------0-0-0--|
|-88888788888-555333-0000-0000-88888788888-1010101010888887-0-0-0--|
|--------------------0000-0000------------------------------0-0-0--|
                     .... ....                              . . .
                                                    

                                                                
  2:08 guitar 1                                            
|-------------------------------------------------|     
|-------------------------------------------------|     
|-------------------------------------------------|     
|-2p111-4-2-1-2p111111-2p111-4-2-1-2p1-4-3-1h2p1--|     
|-2p111-4-2-1-2p111111-2p111-4-2-1-2p1-4-3-1h2p1--|     
|-2p111-4-2-1-2p111111-2p111-4-2-1-2p1-4-3-1h2p1--|     

     ..          .....    ..
2:23 guitar 1
|--------------------------------------------------------------|  
|--------------------------------------------------------------|  
|--------------------------------------------------------------|   
|-4-2p1h2p11h2h3-----------------------------------------------|  
|-4-2p1h2p11h2h3-----------------------------------------------|  
|-4-2p1h2p11h2h3-----------------------------------------------|  


  2:14 guitar 1,2                                         
|-------------------------------------------------|     
|-------------------------------------------------|     
|-------------------------------------------------|     
|-2p111-4-2-1-2p111111-2p111-4-2-1-2p1-4-3-1h2p1--|     
|-2p111-4-2-1-2p111111-2p111-4-2-1-2p1-4-3-1h2p1--|     
|-2p111-4-2-1-2p111111-2p111-4-2-1-2p1-4-3-1h2p1--|     
     ..          .....    ..

2:23 guitar 1,2
|--------------------------------------------------------------|  
|--------------------------------------------------------------|  
|--------------------------------------------------------------|   
|-4-2p1h2p11h2h3-----------------------------------------------|  
|-4-2p1h2p11h2h3-----------------------------------------------|  
|-4-2p1h2p11h2h3-----------------------------------------------|  


 2:25  guitar 2  
|---------------------------------------|
|-16------------------------------------|
|-19------------------------------------|
|---------------------------------------|
|---------------------------------------|
|---------------------------------------|

  2:35
|------------------------------------------------------------------|
|------------------------------------------------------------------|
|------------------------------------------------------------------| 
|-000-000-000---------000-000-444-444-444--------------------------|
|-000-000-000-8h9-4h6-000-000-444-444-444-10h12-14-12-12-10h12p10--|
|-000-000-000---------000-000-444-444-444--------------------------|
  ... ... ...         ... ... ... ... ...  


 2:46  chorus: guitar 1
|---------------------------------------|
|---------------------------------------|
|-8-7-11-10-----------------------------| 
|-8-7-11-10-----------------------------|
|-6-5--9--8-----------------------------|
|---------------------------------------|

 2:46  chorus: guitar 2 
|---------------------------------------|
|---------------------------------------|
|---------------------------------------| 
|-1-0-4-3-------------------------------|
|-1-0-4-3-------------------------------|
|-1-0-4-3-------------------------------|

  2:57
|------------------------------------------------------------------|
|------------------------------------------------------------------|
|------------------------------------------------------------------| 
|-111-111-111-111-111-111-000-000-444-444-444-444-444-444-333-333--|x2
|-111-111-111-111-111-111-000-000-444-444-444-444-444-444-333-333--|
|-111-111-111-111-111-111-000-000-444-444-444-444-444-444-333-333--|
  ... ... ... ... ... ... ... ... ... ... ... ... ... ... ... ...


  3:10 guitar2
|---------------------------------------|
|---------------------------------------|
|---------------------------------------| 
|-0000000000----------------------------|
|-0000000000----------------------------|
|-0000000000----------------------------|
  ..........

  3: guitar 1,2
|---------------------------------------------------------------|
|---------------------------------------------------------------|
|---------------------------------------------------------------| 
|-10-----9h10----7-5---------10-----9h10-----12-10-9-10-9-7-<5>-|x4
|-8------7h8-----5-3----------8-----7h8------10-8--7-8--7-5-----|
|----000-----000-----0-000-00---000------000--------------------|
     ...     ...     . ... ..   ...      ...
   

  3:35 guitar 1
|----------------------------------------------------------------------------------------------|
|----------------------------------------------------------------------------------------------|
|----------------------------------------------------------------------------------------------| 
|-------------------------------0000-0000-----------------------------------------------0-0-0--|
|-1212121212101212121212-888777-0000-0000-1212121212101212121212-1313131313121212121210-0-0-0--|
|-------------------------------0000-0000-----------------------------------------------0-0-0--|
                                .... ....                                               . . .
                                                  

                                             
  3:35 guitar 2
|------------------------------------------------------------------------|
|------------------------------------------------------------------------|
|------------------------------------------------------------------------| 
|--------------------0000-0000------------------------------0-0-0--------|
|-88888788888-555333-0000-0000-88888788888-1010101010888887-0-0-0--------|
|--------------------0000-0000------------------------------0-0-0-7b-8b--|
                     .... ....                              . . .



 3:53 clean
|---------------------------------------|
|------6----------6---------------------|
|----9---9-9----9---9-9-----------------| 
|-10---------10-------------------------|
|---------------------------------------|
|---------------------------------------|


 4:15 guitar 2 distortion
|---------------------------------------------| 
|------6----------6----------6----------6-----|
|----9---9-9----9---9-9----9---9-9----9---9-9-| 
|-10---------10---------10---------10---------| 
|---------------------------------------------| 
|---------------------------------------------| 
                                               

----------------------------------------------------------|
----------------------------------------------------------|
----------------------------------------------------------| x2
-0000000000-0-0-0-0000000000-0000000000-0-0-0-0000000000--|
-0000000000-0-0-0-0000000000-0000000000-0-0-0-0000000000--|
-0000000000-0-0-0-0000000000-0000000000-0-0-0-0000000000--|
 .......... . . . .......... .......... . . . ..........

 4:15 guitar 1
|--------------------------------------------- 
|--------------------------------------------- 
|--------------------------------------------- 
|-8~--------------------12~-------------~12/2- 
|-8~--------------------12~-------------~12/2- 
|-8~--------------------12~-------------~12/2- 
                                               

----------------------------------------------------------| 
----------------------------------------------------------|
----------------------------------------------------------|
-0000000000-0-0-0-0000000000-0000000000-0-0-0-0000000000--|
-0000000000-0-0-0-0000000000-0000000000-0-0-0-0000000000--|
-0000000000-0-0-0-0000000000-0000000000-0-0-0-0000000000--|
 .......... . . . .......... .......... . . . ..........


 4:36 guitar 1
|---------------------------------------|
|---------------------------------------|
|---------------------------------------|
|-10~--------12~--------10~-------------|
|-10~--------12~--------10~-------------|
|-10~--------12~--------10~-------------|



 4:36 guitar 2   
|---------------------------------------|
|---------------------------------------|
|---------------------------------------| 
|---------------------------------------|
|---------------------------------------|
|---------------------------------------|


 4:41 guitar 2
|---------------------------------------|
|---------------------------------------|
|-1212-1010-99-----1212-1010-12-14-14^--| 
|--------------1010---------------------|
|---------------------------------------|
|---------------------------------------|

  4:41 guitar 1
|----------------------------------------------------------|
|----------------------------------------------------------|
|----------------------------------------------------------| 
|-0000000000-0-0-0-0000000000-0000000000-0-0-0-0000000000--|
|-0000000000-0-0-0-0000000000-0000000000-0-0-0-0000000000--|
|-0000000000-0-0-0-0000000000-0000000000-0-0-0-0000000000--|
  .......... . . . .......... .......... . . . ..........

 4:47 guitar 2
|---------------------------------------|
|---------------------------------------|
|---------------------------------------| 
|---------------------------------------|
|---------------------------------------|
|---------------------------------------|

 4:47 guitar 1
|------------------------------------------------------------------|
|------------------------------------------------------------------|
|-------------------------10-10-10-10-10-10-10-10-9-9-9-9-9-9-9-9--| 
|-15-15-15-15-15-15-15-15--x--x--x--x--x--x--x--x-x-x-x-x-x-x-x-x--|
|-15-15-15-15-15-15-15-15--8--8--8--8--8--8--8--8-7-7-7-7-7-7-7-7--|
|-15-15-15-15-15-15-15-15------------------------------------------|


 4:52 guitar 2
|---------------------------------------|
|---------------------------------------|
|-1212-1010-99-----1212-1010-12-14-14^--| 
|--------------1010---------------------|
|---------------------------------------|
|---------------------------------------|

 4:52 guitar 1
|----------------------------------------------------------|
|----------------------------------------------------------|
|----------------------------------------------------------| 
|-0000000000-0-0-0-0000000000-0000000000-0-0-0-0000000000--|
|-0000000000-0-0-0-0000000000-0000000000-0-0-0-0000000000--|
|-0000000000-0-0-0-0000000000-0000000000-0-0-0-0000000000--|
  .......... . . . .......... .......... . . . ..........

 4:58 guitar1
|------------------------------------------------|
|------------------------------------------------|
|-12-14-14h15-1414-1212-12-14-14h15-1414-10-10^--| 
|------------------------------------------------|
|------------------------------------------------|
|------------------------------------------------|

 4:58 guitar2
|-------------------------------------------|
|-------------------------------------------|
|-9-10-10h12-1010-9----9-10-10h12-10-1414^--| 
|-------------------10----------------------|
|-------------------------------------------|
|-------------------------------------------|

 5:09 solo guitar 2
|-----------------------------------------------------------|
|-t15p8h10(x?)-t17p8h10(x?)-t15p8h10(x?)--------------------|
|-----------------------------------------------------------| 
|-----------------------------------------------------------|x4
|-----------------------------------------------------------|
|-----------------------------------------------------------|

  5:09 solo guitar 1
|---------------------------------------|
|---------------------------------------|
|---------------------------------------| 
|---------------------------------------|
|---------------------------------------|
|---------------------------------------|


 5:19  guitar 2  
|---------------------------------------|
|-11-------------------16---------------|
|-14-------------------19---------------|
|---------------------------------------|
|---------------------------------------|
|---------------------------------------|
                                        
  5:22 guitar 1                                             
|-------------------------------------------------|      
|-------------------------------------------------|     
|-------------------------------------------------|     
|-2p111-4-2-1-2p111111-2p111-4-2-1-2p1-4-3-1h2p1--|     
|-2p111-4-2-1-2p111111-2p111-4-2-1-2p1-4-3-1h2p1--|     
|-2p111-4-2-1-2p111111-2p111-4-2-1-2p1-4-3-1h2p1--| 
     ..          .....    .. 
 
2: guitar 1
|--------------------------------------------------------------|  
|--------------------------------------------------------------|  
|--------------------------------------------------------------|   
|-4-2p1h2p11h2h3-----------------------------------------------|  
|-4-2p1h2p11h2h3-----------------------------------------------|  
|-4-2p1h2p11h2h3-----------------------------------------------|  


  :   guitar 1,2 distortion
|------------------------------------------------------------------|
|------------------------------------------------------------------|
|------------------------------------------------------------------| 
|-000-000-000---------000-000-444-444-444--------------------------|x2
|-000-000-000-8h9-4h6-000-000-444-444-444-10h12-14-12-12-10h12p10--|
|-000-000-000---------000-000-444-444-444--------------------------|
  ... ... ...         ... ... ... ... ...

 2:46  chorus: guitar 1
|---------------------------------------|
|---------------------------------------|
|-8-7-11-10-----------------------------| 
|-8-7-11-10-----------------------------|
|-6-5--9--8-----------------------------|
|---------------------------------------|

 2:46  chorus: guitar 2 
|---------------------------------------|
|---------------------------------------|
|---------------------------------------| 
|-1-0-4-3-------------------------------|
|-1-0-4-3-------------------------------|
|-1-0-4-3-------------------------------|

  2:57
|------------------------------------------------------------------|
|------------------------------------------------------------------|
|------------------------------------------------------------------| 
|-111-111-111-111-111-111-000-000-444-444-444-444-444-444-333-333--|
|-111-111-111-111-111-111-000-000-444-444-444-444-444-444-333-333--|
|-111-111-111-111-111-111-000-000-444-444-444-444-444-444-333-333--|
  ... ... ... ... ... ... ... ... ... ... ... ... ... ... ... ...
  
comments
We did not receive enough feedback on this tab! Please rate:
print report bad tab
1 2 3 4 5
I want to post or [tab]
guest
You may want to rate the tab now too:
select rating
Please do not post tabs as comments. Select "correction" instead!