Oops, an error
Loading. Please wait.

Scars Tab

659 views 1 this week
no commentswrite comment
1 2 3 4 5
please rate
add to favorites launch autoscroll
font size
0
reset
Autoscroll
+/-
esc
set tempo
stop
Difficulty
Tuning
intermediate
C G C F A D
WARNING: You are trying to view
                                    content from Ultimate-Guitar.com
                                    in an unauthorized application,
                                    which is prohibited.

                                    Please use an official Ultimate
                                    Guitar Tabs application for iPhone,
                                    iPad or Android to access legitimate
                                    chords, guitar, bass, and drum tabs
                                    from Ultimate-Guitar.com database.

                                    Type "ultimate guitar tabs" in Apple
                                    App Store's or Android Market's
                                    search to find the application.
Scars
The Sorrow
Origin Of The Storm

Drop C - CGCFAD

-Intro- 

Andi
D|-------------------------------------------------------------------------|
A|-------------------------------------------------------------------------|
F|-------------------------------------------------------------------------|
C|-8-5-7-------------------------------8-10-7------------------------------|
G|-6-3-5-------------------------------6--8-5------------------------------|
C|-------0-000-0-0-000-0-0-000-0-0-000--------0-000-0-0-000-0-0-000-0-0-000|
P.M      . ... . . ... . . ... . . ...        . ... . . ... . . ... . . ...

Matze
D|-------------------------------------------------------------------------|
A|-------------------------------------------------------------------------|
F|-------------------------------------------------------------------------|
C|-8-5-7-------------------------------8-10-7------------------------------|
G|-6-3-5-------------------------------6--8-5------------------------------|
C|-------------------------------------------------------------------------|

Andi
D|-------------------------------------------------------------------------|
A|-------------------------------------------------------------------------|
F|-------------------------------------------------------------------------|
C|-8-5-7-------------------------------6-5-3-------------------------------|
G|-6-3-5-------------------------------6-5-3-------------------------------|
C|-------0-000-0-0-000-0-0-000-0-0-000-6-5-3--3-333-3-3-333-3-3------------|
P.M      . ... . . ... . . ... . . ...        . ... . . ... . .

Matze
D|-------------------------------------------------------------------------|
A|-------------------------------------------------------------------------|
F|-------------------------------------------------------------------------|
C|-8-5-7-------------------------------6-5-3~~~----------------------------|
G|-6-3-5-------------------------------6-5-3~~~----------------------------|
C|-------------------------------------6-5-3~~~----------------------------|


-Verso-

Andi & Matze
D|-------------------------------------------------------------------------|
A|-------------------------------------------------------------------------|
F|-------------------------------------------------------------------------|
C|-8-5-7-------------------------------8-10-7------------------------------|
G|-6-3-5-------------------------------6--8-5------------------------------|
C|-------0-000-0-0-000-0-0-000-0-0-000--------0-000-0-0-000-0-0-000-0-0-000|
P.M      . ... . . ... . . ... . . ...        . ... . . ... . . ... . . ...


D|-------------------------------------------------------------------------|
A|-------------------------------------------------------------------------|
F|-------------------------------------------------------------------------|
C|-8-5-7-------------------------------6-5-3-------------------------------|
G|-6-3-5-------------------------------6-5-3-------------------------------|
C|-------0-000-0-0-000-0-0-000-0-0-000-6-5-3--3-333-3-3-333-3-3-333-3-3-333|
P.M      . ... . . ... . . ... . . ...        . ... . . ... . . ... . . ...

D|-------------------------------------------------------------------------|
A|-------------------------------------------------------------------------|
F|-------------------------------------------------------------------------|
C|-8-5-7-------------------------------8-10-7------------------------------|
G|-6-3-5-------------------------------6--8-5------------------------------|
C|-------0-000-0-0-000-0-0-000-0-0-000--------0-000-0-0-000-0-0-000-0-0-000|
P.M      . ... . . ... . . ... . . ...        . ... . . ... . . ... . . ...

D|-------------------------------------------------------------------------|
A|-------------------------------------------------------------------------|
F|-------------------------------------------------------------------------|
C|-8-5-7-------------------------------6-5--1~----3~-----------------------|
G|-6-3-5-------------------------------6-5--1~----3~-----------------------|
C|-------0-000-0-0-000-0-0-000-0-0-000-6-5--1~----3~-----------------------|
P.M      . ... . . ... . . ... . . ...

Andi
D|----------------------------------|   |----------------------------------|
A|----------------------------------|   |----------------------------------|
F|----------------------------------|   |----------------------------------|
C|----------------------------------|   |----------------------------12\---|
G|-8-555-7-555-8-555-10-55-8-55-7---|   |-8-555-7-555-8-555-10-555---12\---|
C|----------------------------------|X3 |----------------------------12\---|
P.M  ...   ...   ...    ..   ..             ...   ...   ...    ...

Matze
D|-------------------------------------------------------------------------|
A|-------------------------------------------------------------------------|
F|-------------------------------------------------------------------------|
C|-------------------------------------------------------------------12\---|
G|-555555555555555555555555555555555-333333333333333333333333333333--12\---|
C|-------------------------------------------------------------------12\---|
P.M.................................................................

Andi & Matze
D|-------------------------------------------------------------------------|
A|-------------------------------------------------------------------------|
F|-------------------------------------------------------------------------|
C|-3------1------3------5------3-----1---3------1------3------5------3----1|
G|-3------1------3------5------3-----1---3------1------3------5------3----1|
C|-3--00--1--00--3--00--5--00--3--0--1---3--00--1--00--3--00--5--00--3--0-1|
P.M   ..     ..     ..     ..     .         ..     ..     ..     ..     .

Andi
D|-----------------------------------------------------------------------|
A|-----------------------------------------------------------------------|
F|-----------------------------------------------------------------------|
C|-7-----5-----7-----8-----7---5----7-----5-----7-----8-----7---5--------|
G|---555---555---555---555---5--------555---555---555---555---5----------|
C|-----------------------------------------------------------------------|X4
P.M  ...   ...   ...   ...   .        ...   ...   ...   ...   .

Matze
D|-----------------------------------------------------------------------|
A|-----------------------------------------------------------------------|
F|-----------------------------------------------------------------------|
C|-----------------------------------------------------------------------|
G|-8-555-7-555-8-555-10-555-8-55-7----8-555-7-555-8-555-10-555-8-55-7----|
C|-----------------------------------------------------------------------|X4
P.M  ...   ...   ...    ...   ..        ...   ...   ...    ...   ..

-Pre-coro- X2

Andi
D|-----------------------------------------------------------------------|
A|-----------------------------------------------------------------------|
F|-7----5---2h3p2----7----5---2h3p2----7----5---2h3p2----7----5---2h3p2--|
C|-----------------------------------------------------------------------|
G|---55---5------------55---5------------55---5------------55---5--------|
C|-----------------------------------------------------------------------|
P.M  ..   .            ..   .            ..   .            ..   .

Matze
D|-----------------------------------------------------------------------|
A|-----------------------------------------------------------------------|
F|-----------------------------------------------------------------------|
C|-8----7---3h5p3----8----7---3h5p3----8----7---3h5p3----8----7---3h5p3--|
G|---55---5------------55---5------------55---5------------55---5--------|
C|-----------------------------------------------------------------------|
P.M  ..   .            ..   .            ..   .            ..   .

Andi & Matze
D|-----------------------------------------------------------------------|
A|-----------------------------------------------------------------------|
F|-----------------------------------------------------------------------|
C|-----------------------------------------------------------------------|
G|-----------------------------------------------------------------------|
C|-0-0-0-0-1p0-0-0-0-0-0-0-0000--0-0-0-0-1p0-0-0-0-0-0-0-0000--0-0-0-----|
P.M. . . .     . . . . . . ....  . . . .     . . . . . . ....  . . . 

-Coro-

Andi
D|-------------------------------------------------------------------------|
A|-------------------------------------------------------------------------|
F|-7-7-7-7-9-9-9-9-10-10-10-10-17-17-17-17-14-14-14-14-14-14-14-14-14-14-14|
C|-X-X-X-X-X-X-X-X-X--X--X--X---X--X--X--X--X--X--X--X--X--X--X--X--X--X--X|
G|-5-5-5-5-7-7-7-7-8--8--8--8--15-15-15-15-12-12-12-12-12-12-12-12-12-12-12|
C|-------------------------------------------------------------------------|

Matze
D|-------------------------------------------------------------------------|
A|-------------------------------------------------------------------------|
F|-----------------------------------------5-5-5-5-5-5-5-5-5-5-5-5-5-5-5-5-|
C|-----------------------------------------5-5-5-5-5-5-5-5-5-5-5-5-5-5-5-5-|
G|-----------------------------------------3-3-3-3-3-3-3-3-3-3-3-3-3-3-3-3-|
C|-------------------------------------------------------------------------|

Andi
D|-------------------------------------------------------------------------|
A|-------------------------------------------------------------------------|
F|-14-14-14-14-14-14-14-10-10-10-10-10-10--12-12-12-12-12-12--7-7-7-7-7-7--|
C|--X--X--X--X--X--X--X--X--X--X--X--X--X---X--X--X--X--X--X--X-X-X-X-X-X--|
G|-12-12-12-12-12-12-12--8--8--8--8--8--8--10-10-10-10-10-10--5-5-5-5-5-5--|
C|-------------------------------------------------------------------------|

Matze
D|-------------------------------------------------------------------------|
A|-------------------------------------------------------------------------|
F|-3-3-3-3-3-3-3-3-3-3-3-3-3-3-3-3-3-3-3-3-3-3-3-3-3-3-3-3-3-3-3-3-3-3-3-3-|
C|-3-3-3-3-3-3-3-3-3-3-3-3-3-3-3-3-3-3-3-3-3-3-3-3-3-3-3-3-3-3-3-3-3-3-3-3-|
G|-1-1-1-1-1-1-1-1-1-1-1-1-1-1-1-1-1-1-1-1-1-1-1-1-1-1-1-1-1-1-1-1-1-1-1-1-|
C|-------------------------------------------------------------------------|


Andi
D|-------------------------------------------------------------------------|
A|-------------------------------------------------------------------------|
F|-7-7-7-7-9-9-9-9-10-10-10-10-17-17-17-17-14-14-14-14-14-14-14-14-14-14-14|
C|-X-X-X-X-X-X-X-X-X--X--X--X---X--X--X--X--X--X--X--X--X--X--X--X--X--X--X|
G|-5-5-5-5-7-7-7-7-8--8--8--8--15-15-15-15-12-12-12-12-12-12-12-12-12-12-12|
C|-------------------------------------------------------------------------|

Matze
D|-------------------------------------------------------------------------|
A|-------------------------------------------------------------------------|
F|-----------------------------------------5-5-5-5-5-5-5-5-5-5-5-5-5-5-5-5-|
C|-0-0-0-0-0-0-0-0-0-0-0-0-0-0-0-0-0-0-0-0-5-5-5-5-5-5-5-5-5-5-5-5-5-5-5-5-|
G|-0-0-0-0-0-0-0-0-0-0-0-0-0-0-0-0-0-0-0-0-3-3-3-3-3-3-3-3-3-3-3-3-3-3-3-3-|
C|-0-0-0-0-0-0-0-0-0-0-0-0-0-0-0-0-0-0-0-0---------------------------------|

Andi
D|-------------------------------------------------------------------------|
A|-------------------------------------------------------------------------|
F|-14-14-14-14-14-14-14-10-10-10-10-10-10--17-17-17-17-17-17-17-17-17-17---|
C|--X--X--X--X--X--X--X--X--X--X--X--X--X---X--X--X--X--X--X--X--X--X--X---|
G|-12-12-12-12-12-12-12--8--8--8--8--8--8--15-15-15-15-15-15-15-15-15-15---|
C|-------------------------------------------------------------------------|

Matze
D|-------------------------------------------------------------------------|
A|-------------------------------------------------------------------------|
F|-3-3-3-3-3-3-3-3-3-3-3-3-3-3-3-3-3-3-3-3-3-3-3-3-3-3-3-3-3-3-3-3-3-3-3-3-|
C|-3-3-3-3-3-3-3-3-3-3-3-3-3-3-3-3-3-3-3-3-3-3-3-3-3-3-3-3-3-3-3-3-3-3-3-3-|
G|-1-1-1-1-1-1-1-1-1-1-1-1-1-1-1-1-1-1-1-1-1-1-1-1-1-1-1-1-1-1-1-1-1-1-1-1-|
C|-------------------------------------------------------------------------|

Andi
D|--------------------------|
A|--------------------------|
F|--------------------------|
C|--------------------------|
G|-------X\\\\\\\\\\\\\\\---|
C|-------X\\\\\\\\\\\\\\\---|

Matze
D|--------------------------|
A|--------------------------|
F|--------------------------|
C|--------------------------|
G|--X\\\\\\\\\\\\\\\\\\-----|
C|--X\\\\\\\\\\\\\\\\\\-----|

-Verso- X2

Andi & Matze
D|-------------------------------------------------------------------------|
A|-------------------------------------------------------------------------|
F|-------------------------------------------------------------------------|
C|-8-5-7-------------------------------8-10-7------------------------------|
G|-6-3-5-------------------------------6--8-5------------------------------|
C|-------0-000-0-0-000-0-0-000-0-0-000--------0-000-0-0-000-0-0-000-0-0-000|
P.M      . ... . . ... . . ... . . ...        . ... . . ... . . ... . . ...


D|-------------------------------------------------------------------------|
A|-------------------------------------------------------------------------|
F|-------------------------------------------------------------------------|
C|-8-5-7-------------------------------6-5-3-------------------------------|
G|-6-3-5-------------------------------6-5-3-------------------------------|
C|-------0-000-0-0-000-0-0-000-0-0-000-6-5-3--3-333-3-3-333-3-3-333-3-3-333|
P.M      . ... . . ... . . ... . . ...        . ... . . ... . . ... . . ...

-Verso II -

Andi & Matze
D|---------------------------------------------------------------|
A|---------------------------------------------------------------|
F|---------------------------------------------------------------|
C|-1-1-0-------------------------1-3-0---------------------------|
G|-1-1-0-------------------------1-3-0---------------------------|
C|-1-1-0--0-000-000-000-000-000--1-3-0--0-000-000-000-000-000----|
P.M       . ... ... ... ... ...         . ... ... ... ... ... 

D|---------------------------------------------------------------|
A|---------------------------------------------------------------|
F|---------------------------------------------------------------|
C|-1-1-0-------------------------6-5-3---------------------------|
G|-1-1-0-------------------------6-5-3---------------------------|
C|-1-1-0--0-000-000-000-000-000--6-5-3--3-333-333-333-333-333----|
P.M       . ... ... ... ... ...         . ... ... ... ... ...    

Andi
D|-------------------------------------------------------------------------|
A|-------------------------------------------------------------------------|
F|-------------------------------------------------------------------------|
C|-------------------------------------------------------------------------|
G|-8h10p8h10p8h10p8-0----------------------8h10p8h10p8h10p8-0--------------|
C|------------------0-000-000-000-000-000-------------------0-000-000-000--|
P.M                   ... ... ... ... ...                     ... ... ...

Matze
D|-------------------------------------------------------------------------|
A|-------------------------------------------------------------------------|
F|-------------------------------------------------------------------------|
C|-------------------------------------------------------------------------|
G|-5h7p5h7p5h7p5-0----------------------5h7p5h7p5h7p5-0--------------------|
C|---------------0-000-000-000-000-000----------------0-000-000-000--------|
P.M                ... ... ... ... ...                  ... ... ...

Andi
D|-------------------------------------------------------------------------|
A|-------------------------------------------------------------------------|
F|-------------------------------------------------------------------------|
C|-----------------------------------------6-5-3---------------------------|
G|-8h10p8h10p8h10p8-0----------------------6-5-3---------------------------|
C|------------------0-000-000-000-000-000--6-5-3-333-333-333-111-111-666-66|
P.M                   ... ... ... ... ...        ... ... ... ... ... ... ..

Matze
D|-------------------------------------------------------------------------|
A|-------------------------------------------------------------------------|
F|-------------------------------------------------------------------------|
C|-----------------------------------------6-5-3---------------------------|
G|-5h7p5h7p5h7p5----0----------------------6-5-3---------------------------|
C|------------------0-000-000-000-000-000--6-5-3-333-333-333-111-111-666-66|
P.M                   ... ... ... ... ...        ... ... ... ... ... ... ..

Andi & Matze - x3
D|-------------------------------------------------------------------------|
A|-------------------------------------------------------------------------|
F|-------------------------------------------------------------------------|
C|-3------1------3------5------3-----1---3------1------3------5------3----1|
G|-3------1------3------5------3-----1---3------1------3------5------3----1|
C|-3--00--1--00--3--00--5--00--3--0--1---3--00--1--00--3--00--5--00--3--0-1|
P.M   ..     ..     ..     ..     .         ..     ..     ..     ..     .


Matze
D|-----------------------------------|
A|-----------------------------------|
F|-----------------------------------|
C|-----------------------------------|
G|-8-555-7-555-8-555-10-555-8-55-7---|
C|-----------------------------------|
P.M  ...   ...   ...    ...   ..  

     
Andi
D|-----------------------------------------------------------------------|
A|-----------------------------------------------------------------------|
F|-----------------------------------------------------------------------|
C|-7-----5-----7-----8-----7---5----7-----5-----7-----8-----7---5--------|
G|---555---555---555---555---5--------555---555---555---555---5----------|
C|-----------------------------------------------------------------------|X4
P.M  ...   ...   ...   ...   .        ...   ...   ...   ...   .

Matze
D|-----------------------------------------------------------------------|
A|-----------------------------------------------------------------------|
F|-----------------------------------------------------------------------|
C|-----------------------------------------------------------------------|
G|-8-555-7-555-8-555-10-555-8-55-7----8-555-7-555-8-555-10-555-8-55-7----|
C|-----------------------------------------------------------------------|X4
P.M  ...   ...   ...    ...   ..        ...   ...   ...    ...   ..

-Pre-coro- X2

Andi
D|-----------------------------------------------------------------------|
A|-----------------------------------------------------------------------|
F|-7----5---2h3p2----7----5---2h3p2----7----5---2h3p2----7----5---2h3p2--|
C|-----------------------------------------------------------------------|
G|---55---5------------55---5------------55---5------------55---5--------|
C|-----------------------------------------------------------------------|
P.M  ..   .            ..   .            ..   .            ..   .

Matze
D|-----------------------------------------------------------------------|
A|-----------------------------------------------------------------------|
F|-----------------------------------------------------------------------|
C|-8----7---3h5p3----8----7---3h5p3----8----7---3h5p3----8----7---3h5p3--|
G|---55---5------------55---5------------55---5------------55---5--------|
C|-----------------------------------------------------------------------|
P.M  ..   .            ..   .            ..   .            ..   .

Andi & Matze
D|-----------------------------------------------------------------------|
A|-----------------------------------------------------------------------|
F|-----------------------------------------------------------------------|
C|-----------------------------------------------------------------------|
G|-----------------------------------------------------------------------|
C|-0-0-0-0-1p0-0-0-0-0-0-0-0000--0-0-0-0-1p0-0-0-0-0-0-0-0000--0-0-0-----|
P.M. . . .     . . . . . . ....  . . . .     . . . . . . ....  . . . 

-Coro-

Andi
D|-------------------------------------------------------------------------|
A|-------------------------------------------------------------------------|
F|-7-7-7-7-9-9-9-9-10-10-10-10-17-17-17-17-14-14-14-14-14-14-14-14-14-14-14|
C|-X-X-X-X-X-X-X-X-X--X--X--X---X--X--X--X--X--X--X--X--X--X--X--X--X--X--X|
G|-5-5-5-5-7-7-7-7-8--8--8--8--15-15-15-15-12-12-12-12-12-12-12-12-12-12-12|
C|-------------------------------------------------------------------------|

Matze
D|-------------------------------------------------------------------------|
A|-------------------------------------------------------------------------|
F|-----------------------------------------5-5-5-5-5-5-5-5-5-5-5-5-5-5-5-5-|
C|-----------------------------------------5-5-5-5-5-5-5-5-5-5-5-5-5-5-5-5-|
G|-----------------------------------------3-3-3-3-3-3-3-3-3-3-3-3-3-3-3-3-|
C|-------------------------------------------------------------------------|

Andi
D|-------------------------------------------------------------------------|
A|-------------------------------------------------------------------------|
F|-14-14-14-14-14-14-14-10-10-10-10-10-10--12-12-12-12-12-12--7-7-7-7-7-7--|
C|--X--X--X--X--X--X--X--X--X--X--X--X--X---X--X--X--X--X--X--X-X-X-X-X-X--|
G|-12-12-12-12-12-12-12--8--8--8--8--8--8--10-10-10-10-10-10--5-5-5-5-5-5--|
C|-------------------------------------------------------------------------|

Matze
D|-------------------------------------------------------------------------|
A|-------------------------------------------------------------------------|
F|-3-3-3-3-3-3-3-3-3-3-3-3-3-3-3-3-3-3-3-3-3-3-3-3-3-3-3-3-3-3-3-3-3-3-3-3-|
C|-3-3-3-3-3-3-3-3-3-3-3-3-3-3-3-3-3-3-3-3-3-3-3-3-3-3-3-3-3-3-3-3-3-3-3-3-|
G|-1-1-1-1-1-1-1-1-1-1-1-1-1-1-1-1-1-1-1-1-1-1-1-1-1-1-1-1-1-1-1-1-1-1-1-1-|
C|-------------------------------------------------------------------------|


Andi
D|-------------------------------------------------------------------------|
A|-------------------------------------------------------------------------|
F|-7-7-7-7-9-9-9-9-10-10-10-10-17-17-17-17-14-14-14-14-14-14-14-14-14-14-14|
C|-X-X-X-X-X-X-X-X-X--X--X--X---X--X--X--X--X--X--X--X--X--X--X--X--X--X--X|
G|-5-5-5-5-7-7-7-7-8--8--8--8--15-15-15-15-12-12-12-12-12-12-12-12-12-12-12|
C|-------------------------------------------------------------------------|

Matze
D|-------------------------------------------------------------------------|
A|-------------------------------------------------------------------------|
F|-----------------------------------------5-5-5-5-5-5-5-5-5-5-5-5-5-5-5-5-|
C|-0-0-0-0-0-0-0-0-0-0-0-0-0-0-0-0-0-0-0-0-5-5-5-5-5-5-5-5-5-5-5-5-5-5-5-5-|
G|-0-0-0-0-0-0-0-0-0-0-0-0-0-0-0-0-0-0-0-0-3-3-3-3-3-3-3-3-3-3-3-3-3-3-3-3-|
C|-0-0-0-0-0-0-0-0-0-0-0-0-0-0-0-0-0-0-0-0---------------------------------|

Andi
D|-------------------------------------------------------------------------|
A|-------------------------------------------------------------------------|
F|-14-14-14-14-14-14-14-10-10-10-10-10-10--17-17-17-17-17-17-17-17-17-17---|
C|--X--X--X--X--X--X--X--X--X--X--X--X--X---X--X--X--X--X--X--X--X--X--X---|
G|-12-12-12-12-12-12-12--8--8--8--8--8--8--15-15-15-15-15-15-15-15-15-15---|
C|-------------------------------------------------------------------------|

Matze
D|-------------------------------------------------------------------------|
A|-------------------------------------------------------------------------|
F|-3-3-3-3-3-3-3-3-3-3-3-3-3-3-3-3-3-3-3-3-3-3-3-3-3-3-3-3-3-3-3-3-3-3-3-3-|
C|-3-3-3-3-3-3-3-3-3-3-3-3-3-3-3-3-3-3-3-3-3-3-3-3-3-3-3-3-3-3-3-3-3-3-3-3-|
G|-1-1-1-1-1-1-1-1-1-1-1-1-1-1-1-1-1-1-1-1-1-1-1-1-1-1-1-1-1-1-1-1-1-1-1-1-|
C|-------------------------------------------------------------------------|

Andi
D|-------------------------------------------------------------------------|
A|-------------------------------------------------------------------------|
F|-7-7-7-7-9-9-9-9-10-10-10-10-17-17-17-17-14-14-14-14-14-14-14-14-14-14-14|
C|-X-X-X-X-X-X-X-X-X--X--X--X---X--X--X--X--X--X--X--X--X--X--X--X--X--X--X|
G|-5-5-5-5-7-7-7-7-8--8--8--8--15-15-15-15-12-12-12-12-12-12-12-12-12-12-12|
C|-------------------------------------------------------------------------|

Matze
D|-------------------------------------------------------------------------|
A|-------------------------------------------------------------------------|
F|-----------------------------------------5-5-5-5-5-5-5-5-5-5-5-5-5-5-5-5-|
C|-0-0-0-0-0-0-0-0-0-0-0-0-0-0-0-0-0-0-0-0-5-5-5-5-5-5-5-5-5-5-5-5-5-5-5-5-|
G|-0-0-0-0-0-0-0-0-0-0-0-0-0-0-0-0-0-0-0-0-3-3-3-3-3-3-3-3-3-3-3-3-3-3-3-3-|
C|-0-0-0-0-0-0-0-0-0-0-0-0-0-0-0-0-0-0-0-0---------------------------------|

Andi
D|-------------------------------------------------------------------------|
A|-------------------------------------------------------------------------|
F|-14-14-14-14-14-14-14-10-10-10-10-10-10--12-12-12-12-12-12--7-7-7-7-7-7--|
C|--X--X--X--X--X--X--X--X--X--X--X--X--X---X--X--X--X--X--X--X-X-X-X-X-X--|
G|-12-12-12-12-12-12-12--8--8--8--8--8--8--10-10-10-10-10-10--5-5-5-5-5-5--|
C|-------------------------------------------------------------------------|

Matze
D|-------------------------------------------------------------------------|
A|-------------------------------------------------------------------------|
F|-3-3-3-3-3-3-3-3-3-3-3-3-3-3-3-3-3-3-3-3-3-3-3-3-3-3-3-3-3-3-3-3-3-3-3-3-|
C|-3-3-3-3-3-3-3-3-3-3-3-3-3-3-3-3-3-3-3-3-3-3-3-3-3-3-3-3-3-3-3-3-3-3-3-3-|
G|-1-1-1-1-1-1-1-1-1-1-1-1-1-1-1-1-1-1-1-1-1-1-1-1-1-1-1-1-1-1-1-1-1-1-1-1-|
C|-------------------------------------------------------------------------|

Andi
D|-------------------------------------------------------------------------|
A|-------------------------------------------------------------------------|
F|-7-7-7-7-9-9-9-9-10-10-10-10--9-9-9-9-7-7-7-7-7-7-7-7-7-7-7-7-7-7-7-7-7--|
C|-X-X-X-X-X-X-X-X--X--X--X--X--X-X-X-X-X-X-X-X-X-X-X-X-X-X-X-X-X-X-X-X-X--|
G|-5-5-5-5-7-7-7-7--8--8--8--8--7-7-7-7-5-5-5-5-5-5-5-5-5-5-5-5-5-5-5-5-5--|
C|-------------------------------------------------------------------------|
 
Matze
D|-------------------------------------------------------------------------|
A|-------------------------------------------------------------------------|
F|-----------------------------------------5-5-5-5-5-5-5-5-5-5-5-5-5-5-5-5-|
C|-0-0-0-0-0-0-0-0-0-0-0-0-0-0-0-0-0-0-0-0-5-5-5-5-5-5-5-5-5-5-5-5-5-5-5-5-|
G|-0-0-0-0-0-0-0-0-0-0-0-0-0-0-0-0-0-0-0-0-3-3-3-3-3-3-3-3-3-3-3-3-3-3-3-3-|
C|-0-0-0-0-0-0-0-0-0-0-0-0-0-0-0-0-0-0-0-0---------------------------------|

Andi
D|-------------------------------------------------------------------------|
A|-------------------------------------------------------------------------|
F|-14-14-14-14-14-14-14-10-10-10-10-10-10--17-17-17-17-17-17-17-17-17-17---|
C|--X--X--X--X--X--X--X--X--X--X--X--X--X---X--X--X--X--X--X--X--X--X--X---|
G|-12-12-12-12-12-12-12--8--8--8--8--8--8--15-15-15-15-15-15-15-15-15-15---|
C|-------------------------------------------------------------------------|

Matze
D|-------------------------------------------------------------------------|
A|-------------------------------------------------------------------------|
F|-3-3-3-3-3-3-3-3-3-3-3-3-3-3-3-3-3-3-3-3-3-3-3-3-3-3-3-3-3-3-3-3-3-3-3-3-|
C|-3-3-3-3-3-3-3-3-3-3-3-3-3-3-3-3-3-3-3-3-3-3-3-3-3-3-3-3-3-3-3-3-3-3-3-3-|
G|-1-1-1-1-1-1-1-1-1-1-1-1-1-1-1-1-1-1-1-1-1-1-1-1-1-1-1-1-1-1-1-1-1-1-1-1-|
C|-------------------------------------------------------------------------|

Andi
D|-------------------------------------------------------------------------|
A|-------------------------------------------------------------------------|
F|-7-7-7-7-9-9-9-9-10-10-10-10-17-17-17-17-14-14-14-14-14-14-14-14-14-14-14|
C|-X-X-X-X-X-X-X-X-X--X--X--X---X--X--X--X--X--X--X--X--X--X--X--X--X--X--X|
G|-5-5-5-5-7-7-7-7-8--8--8--8--15-15-15-15-12-12-12-12-12-12-12-12-12-12-12|
C|-------------------------------------------------------------------------|

Matze
D|-------------------------------------------------------------------------|
A|-------------------------------------------------------------------------|
F|-----------------------------------------5-5-5-5-5-5-5-5-5-5-5-5-5-5-5-5-|
C|-0-0-0-0-0-0-0-0-0-0-0-0-0-0-0-0-0-0-0-0-5-5-5-5-5-5-5-5-5-5-5-5-5-5-5-5-|
G|-0-0-0-0-0-0-0-0-0-0-0-0-0-0-0-0-0-0-0-0-3-3-3-3-3-3-3-3-3-3-3-3-3-3-3-3-|
C|-0-0-0-0-0-0-0-0-0-0-0-0-0-0-0-0-0-0-0-0---------------------------------|

Andi
D|-------------------------------------------------------------------------|
A|-------------------------------------------------------------------------|
F|-14-14-14-14-14-14-14-10-10-10-10-10-10--12-12-12-12-12-12--7-7-7-7-7-7--|
C|--X--X--X--X--X--X--X--X--X--X--X--X--X---X--X--X--X--X--X--X-X-X-X-X-X--|
G|-12-12-12-12-12-12-12--8--8--8--8--8--8--10-10-10-10-10-10--5-5-5-5-5-5--|
C|-------------------------------------------------------------------------|

Matze
D|-------------------------------------------------------------------------|
A|-------------------------------------------------------------------------|
F|-3-3-3-3-3-3-3-3-3-3-3-3-3-3-3-3-3-3-3-3-3-3-3-3-3-3-3-3-3-3-3-3-3-3-3-3-|
C|-3-3-3-3-3-3-3-3-3-3-3-3-3-3-3-3-3-3-3-3-3-3-3-3-3-3-3-3-3-3-3-3-3-3-3-3-|
G|-1-1-1-1-1-1-1-1-1-1-1-1-1-1-1-1-1-1-1-1-1-1-1-1-1-1-1-1-1-1-1-1-1-1-1-1-|
C|-------------------------------------------------------------------------|

Andi
D|-------------------------------------------------------------------------|
A|-------------------------------------------------------------------------|
F|-7-7-7-7-9-9-9-9-10-10-10-10-17-17-17-17-14-14-14-14-14-14-14-14-14-14-14|
C|-X-X-X-X-X-X-X-X-X--X--X--X---X--X--X--X--X--X--X--X--X--X--X--X--X--X--X|
G|-5-5-5-5-7-7-7-7-8--8--8--8--15-15-15-15-12-12-12-12-12-12-12-12-12-12-12|
C|-------------------------------------------------------------------------|

Matze
D|-------------------------------------------------------------------------|
A|-------------------------------------------------------------------------|
F|-----------------------------------------5-5-5-5-5-5-5-5-5-5-5-5-5-5-5-5-|
C|-0-0-0-0-0-0-0-0-0-0-0-0-0-0-0-0-0-0-0-0-5-5-5-5-5-5-5-5-5-5-5-5-5-5-5-5-|
G|-0-0-0-0-0-0-0-0-0-0-0-0-0-0-0-0-0-0-0-0-3-3-3-3-3-3-3-3-3-3-3-3-3-3-3-3-|
C|-0-0-0-0-0-0-0-0-0-0-0-0-0-0-0-0-0-0-0-0---------------------------------|

Andi
D|-------------------------------------------------------------------------|
A|-------------------------------------------------------------------------|
F|-14-14-14-14-14-14-14-10-10-10-10-10-10--17-17-17-17-17-17-17-17-17-17---|
C|--X--X--X--X--X--X--X--X--X--X--X--X--X---X--X--X--X--X--X--X--X--X--X---|
G|-12-12-12-12-12-12-12--8--8--8--8--8--8--15-15-15-15-15-15-15-15-15-15---|
C|-------------------------------------------------------------------------|

Matze
D|-------------------------------------------------------------------------|
A|-------------------------------------------------------------------------|
F|-3-3-3-3-3-3-3-3-3-3-3-3-3-3-3-3-3-3-3-3-3-3-3-3-3-3-3-3-3-3-3-3-3-3-3-3-|
C|-3-3-3-3-3-3-3-3-3-3-3-3-3-3-3-3-3-3-3-3-3-3-3-3-3-3-3-3-3-3-3-3-3-3-3-3-|
G|-1-1-1-1-1-1-1-1-1-1-1-1-1-1-1-1-1-1-1-1-1-1-1-1-1-1-1-1-1-1-1-1-1-1-1-1-|
C|-------------------------------------------------------------------------|

comments
We did not receive enough feedback on this tab! Please rate:
print report bad tab
1 2 3 4 5
I want to post or [tab]
guest
You may want to rate the tab now too:
select rating
Please do not post tabs as comments. Select "correction" instead!