Oops, an error
Loading. Please wait.

The Dagger Thrust Tab

645 views 6 this week
no commentswrite comment
1 2 3 4 5
excellent!
x 1
add to favorites launch autoscroll
font size
0
reset
Autoscroll
+/-
esc
set tempo
stop
Difficulty
Tuning
intermediate
C G C F A D
WARNING: You are trying to view
                                    content from Ultimate-Guitar.com
                                    in an unauthorized application,
                                    which is prohibited.

                                    Please use an official Ultimate
                                    Guitar Tabs application for iPhone,
                                    iPad or Android to access legitimate
                                    chords, guitar, bass, and drum tabs
                                    from Ultimate-Guitar.com database.

                                    Type "ultimate guitar tabs" in Apple
                                    App Store's or Android Market's
                                    search to find the application.
The Dagger Thrust
The Sorrow
Blessings From A Blackened Sky

Drop C: CGCFAD



-Intro-
Andi
D|-------------------------------------------------------------------|
A|-------------------------------------------------------------------|
F|-------------------------------------------------------------------|
C|-------------------------------------------------------------------|
G|-3h5-----------5h7----------7h8------------------------------------|
C|-----000000000-----00000000-----00000000--8h10-000-7h8-000-6h7-00--|
P.M    .........     ........     ........       ...     ...     ..

Andi
D|-------------------------------------------------------------------|
A|-------------------------------------------------------------------|
F|-------------------------------------------------------------------|
C|-------------------------------------------------------------------|
G|-3h5-----------5h7----------7h8------------------------------------|
C|-----000000000-----00000000-----00000000--8h10-000-7h8-000-6h7-00--|
P.M    .........     ........     ........       ...     ...     ..

Matze
D|------------------------------------------------------------------------|
A|------------------------------------------------------------------------|
F|------------------------------------------------------------------------|
C|------------------------------------------------------------------------|
G|-7h8-----------8h10----------10h12--------------------------------------|
C|-----000000000------00000000-------00000000-12h14-000-10h12-000-8h10-00-|
P.M    .........      ........       ........       ...       ...      ..

-Verso-
Andi
D|-----------------------------------------------------------------|
A|-----------------------------------------------------------------|
F|-----------------------------------------------------------------|
C|-----------------------------------------------------------------|
G|-3h5-------------5h7-------------7h8---------------8----7---10---|
C|-----000-000-000-----000-000-000-----000-000-000-0-8-00-7-0-10-0-|
P.M    ... ... ...     ... ... ...     ... ... ... .   ..   .    .

Matze
D|--------------------------------------------------------------------|
A|--------------------------------------------------------------------|
F|--------------------------------------------------------------------|
C|--------------------------------------------------------------------|
G|-7h8-------------8h10-------------10h12---------------8----7---10---|
C|-----000-000-000------000-000-000-------000-000-000-0-8-00-7-0-10-0-|
P.M    ... ... ...      ... ... ...       ... ... ... .   ..   .    .

Andi
D|-------------------------------------------------------------------------|
A|-------------------------------------------------------------------------|
F|-10-10-10-10-10-10--5-5-5-5--7-7-7-7--5-5-5-5-5-5--10-10-10-10-10-10/12~-|
C|--x--x--x--x--x--x--x-x-x-x--x-x-x-x--x-x-x-x-x-x---x--x--x--x--x--x--x--|
G|--8--8--8--8--8--8--3-3-3-3--5-5-5-5--3-3-3-3-3-3---8--8--8--8--8--8/10~-|
C|-------------------------------------------------------------------------|

Matze
D|-------------------------------------------------------------------------|
A|-------------------------------------------------------------------------|
F|-10-10-10-10-10-10-10-10-10-10-10-10-10-10-10-10-10-10-------------------|
C|--X--X--X--X--X--X--X--X--X--X--X--X--X--X--X--X--X--X-------------------|
G|--8--8--8--8--8--8--8--8--8--8--8--8--8--8--8--8--8--8-------------------|
C|--------------------------------------------------------0-000-0-000-000--|
P.M                                                       . ... . ... ...

Andi
D|-----------------------------------------------------------------|
A|-----------------------------------------------------------------|
F|-----------------------------------------------------------------|
C|-----------------------------------------------------------------|
G|-3h5-------------5h7-------------7h8---------------8----7---5----|
C|-----000-000-000-----000-000-000-----000-000-000-0-8-00-7-0-5-0--|
P.M    ... ... ...     ... ... ...     ... ... ... .   ..   .   .

Matze
D|--------------------------------------------------------------------|
A|--------------------------------------------------------------------|
F|--------------------------------------------------------------------|
C|--------------------------------------------------------------------|
G|-7h8-------------8h10-------------10h12---------------8----7---5----|
C|-----000-000-000------000-000-000-------000-000-000-0-8-00-7-0-5-0--|
P.M    ... ... ...      ... ... ...       ... ... ... .   ..   .   .

Andi
D|---------------------------------------------------------------------|
A|---------------------------------------------------------------------|
F|-12-12-12-12-12--10-10-10-10-10-10--9-9-9-9-9-9--10-10-10-10-10-10---|
C|--X--X--X--X--X---X--X--X--X--X--X--X-X-X-X-X-X---X--X--X--X--X--X---|
G|-10-10-10-10-10---8--8--8--8--8--8--7-7-7-7-7-7---8--8--8--8--8--8---|
C|---------------------------------------------------------------------|

Matze
D|---------------------------------------------------------------------|
A|---------------------------------------------------------------------|
F|---------------------------------------------------------------------|
C|-3-3-3-3-3-3-3-3-3-3-3-3-3-3-3-3-3-3-3-3-3-3-3-3-3-3-----------------|
G|-3-3-3-3-3-3-3-3-3-3-3-3-3-3-3-3-3-3-3-3-3-3-3-3-3-3----3----1---1---|
C|-3-3-3-3-3-3-3-3-3-3-3-3-3-3-3-3-3-3-3-3-3-3-3-3-3-3--0-3-00-1-0-1---|
P.M                                                     .   ..   .

-Coro-
Andi
D|-------------------------------------------------------------------------|
A|-------------------------------------------------------------------------|
F|-------------------------------------------------------------------------|
C|-------------------------------------------------------------------------|
G|-----7-8~------------12p10---10p7-8~-(X2)-----7-8~------------12p10-10*--|
C|-0-0------0-0000-0-0-------0--------------0-0------0-0000-0-0------------|
P.M. .      . .... . .       .              . .      . .... . .       

Matze
D|-----------------------------------------------------------------------|
A|-----------------------------------------------------------------------|
F|-----------------------------------------------------------------------|
C|-0~~~~~~~~--8~~~~~~~~~--5~~~~~~~~~-------------------------------------|
G|-0~~~~~~~~--8~~~~~~~~~--5~~~~~~~~~----10*------------------------------|
C|-0~~~~~~~~--8~~~~~~~~~--5~~~~~~~~~-------------------------------------|

Andi - (x4)
D|-------------------------------------------------------------------------|
A|-------------------------------------------------------------------------|
F|-------------------------------------------------------------------------|
C|-------------------------------------------------------------------------|
G|-----7-8~------------12p10---10p7-8~-----7-8~------------12p10---10p7-8~-|
C|-0-0------0-0000-0-0-------0---------0-0------0-0000-0-0-------0---------|
P.M. .      . .... . .       .         . .      . .... . .       .

Matze
D|-------------------------------------------------------------------------|
A|-------------------------------------------------------------------------|
F|-------------------------------------------------------------------------|
C|----------------------------------------------------------8~~~--5~~~-----|
G|----------------------------------------------------------8~~~--5~~~-----|
C|-0-0------0-0000-0-0-----------------0-0------0-0000-0-0--8~~~--5~~~-----|
P.M. .      . .... . .                 . .      . .... . .

D|-------------------------------------------|
A|-------------------------------------------|
F|-------------------------------------------|
C|-------------------------------------------|
G|------11-13~------------15p13---13p10p11~--|
C|--0-0--------0-0000-0-0-------0------------|x4
P.M . .        . .... . .       .

-Verso II-
Andi
D|---------------------------------------------------------------------|
A|---------------------------------------------------------------------|
F|---------------------------------------------------------------------|
C|---------------------------------------------------------------------|
G|3h5-------------5h7-------------7h8----------------------------------|
C|----000-000-000-----000-000-000-----000-000-000-000-000-000-000-000--|x4
P.M   ... ... ...     ... ... ...     ... ... ... ... ... ... ... ...

Matze
D|---------------------------------------------------------------------|
A|---------------------------------------------------------------------|
F|---------------------------------------------------------------------|
C|---------------------------------------------------------------------|
G|---------------------------------------------------------------------|
C|------------------------------------000-000-000-000-000-000-000-000--|
P.M                                   ... ... ... ... ... ... ... ...

Matze - (x3)
D|------------------------------------------------------------------------|
A|------------------------------------------------------------------------|
F|------------------------------------------------------------------------|
C|------------------------------------------------------------------------|
G|-7h8-------------8h10-------------10h12---------------------------------|
C|-----000-000-000------000-000-000-------000-000-000-000-000-000-000-000-|
P.M    ... ... ...      ... ... ...       ... ... ... ... ... ... ... ...

-Verso-
Andi
D|-----------------------------------------------------------------|
A|-----------------------------------------------------------------|
F|-----------------------------------------------------------------|
C|-----------------------------------------------------------------|
G|-3h5-------------5h7-------------7h8---------------8----7---10---|
C|-----000-000-000-----000-000-000-----000-000-000-0-8-00-7-0-10-0-|
P.M    ... ... ...     ... ... ...     ... ... ... .   ..   .    .

Matze
D|--------------------------------------------------------------------|
A|--------------------------------------------------------------------|
F|--------------------------------------------------------------------|
C|--------------------------------------------------------------------|
G|-7h8-------------8h10-------------10h12---------------8----7---10---|
C|-----000-000-000------000-000-000-------000-000-000-0-8-00-7-0-10-0-|
P.M    ... ... ...      ... ... ...       ... ... ... .   ..   .    .

Andi
D|-------------------------------------------------------------------------|
A|-------------------------------------------------------------------------|
F|-10-10-10-10-10-10--5-5-5-5--7-7-7-7--5-5-5-5-5-5--10-10-10-10-10-10/12~-|
C|--x--x--x--x--x--x--x-x-x-x--x-x-x-x--x-x-x-x-x-x---x--x--x--x--x--x--x--|
G|--8--8--8--8--8--8--3-3-3-3--5-5-5-5--3-3-3-3-3-3---8--8--8--8--8--8/10~-|
C|-------------------------------------------------------------------------|

Matze
D|-------------------------------------------------------------------------|
A|-------------------------------------------------------------------------|
F|-10-10-10-10-10-10-10-10-10-10-10-10-10-10-10-10-10-10-------------------|
C|--X--X--X--X--X--X--X--X--X--X--X--X--X--X--X--X--X--X-------------------|
G|--8--8--8--8--8--8--8--8--8--8--8--8--8--8--8--8--8--8-------------------|
C|--------------------------------------------------------0-000-0-000-000--|
P.M                                                       . ... . ... ...

Andi
D|-----------------------------------------------------------------|
A|-----------------------------------------------------------------|
F|-----------------------------------------------------------------|
C|-----------------------------------------------------------------|
G|-3h5-------------5h7-------------7h8---------------8----7---5----|
C|-----000-000-000-----000-000-000-----000-000-000-0-8-00-7-0-5-0--|
P.M    ... ... ...     ... ... ...     ... ... ... .   ..   .   .

Matze
D|--------------------------------------------------------------------|
A|--------------------------------------------------------------------|
F|--------------------------------------------------------------------|
C|--------------------------------------------------------------------|
G|-7h8-------------8h10-------------10h12---------------8----7---5----|
C|-----000-000-000------000-000-000-------000-000-000-0-8-00-7-0-5-0--|
P.M    ... ... ...      ... ... ...       ... ... ... .   ..   .   .

Andi
D|---------------------------------------------------------------------|
A|---------------------------------------------------------------------|
F|-12-12-12-12-12--10-10-10-10-10-10--9-9-9-9-9-9--10-10-10-10-10-10---|
C|--X--X--X--X--X---X--X--X--X--X--X--X-X-X-X-X-X---X--X--X--X--X--X---|
G|-10-10-10-10-10---8--8--8--8--8--8--7-7-7-7-7-7---8--8--8--8--8--8---|
C|---------------------------------------------------------------------|

Matze
D|---------------------------------------------------------------------|
A|---------------------------------------------------------------------|
F|---------------------------------------------------------------------|
C|-3-3-3-3-3-3-3-3-3-3-3-3-3-3-3-3-3-3-3-3-3-3-3-3-3-3-----------------|
G|-3-3-3-3-3-3-3-3-3-3-3-3-3-3-3-3-3-3-3-3-3-3-3-3-3-3----3----1---1---|
C|-3-3-3-3-3-3-3-3-3-3-3-3-3-3-3-3-3-3-3-3-3-3-3-3-3-3--0-3-00-1-0-1---|
P.M                                                     .   ..   .

-Puente-
Andi
D|-------------------------------------------------------------------|
A|-------------------------------------------------------------------|
F|-------------------------------------------------------------------|
C|-------------------------------------------------------------------|
G|-------------------------------------------------------------------|
C|-1-1-1--1-1-1--1-1-1--1-1-1--1-1-1--1--1-1-1--1-1-1--1-1-1--1-1-1--|
P.M. . .  . . .  . . .  . . .  . . .  .  . . .  . . .  . . .  . . .

Matze
D|---------------------------------------------------------------------|
A|---------------------------------------------------------------------|
F|---3---3---3---3---3---3---3---3---3---3---3---3---3---3---3---3---3-|
C|-7---7---7---7---7---7---7---7---7---7---7---7---7---7---7---7---7---|
G|---------------------------------------------------------------------|
C|---------------------------------------------------------------------|

Andi & Matze
D|----------------------------------------------------------------------|
A|----------------------------------------------------------------------|
F|----------------------------------------------------------------------|
C|----------------------------------------------------------------------|
G|----------------------------------------------------------------------|
C|-000-000-000-000--000--0--000-000--000-000-000-000--000--0--000-000---|
P.M... ... ... ...  ...  .  ... ...  ... ... ... ...  ...  .  ... ...

Andi
D|-------------------------------------------------------------------|
A|-------------------------------------------------------------------|
F|-------------------------------------------------------------------|
C|-------------------------------------------------------------------|
G|-------------------------------------------------------------------|
C|-1-1-1--1-1-1--1-1-1--1-1-1--1-1-1--1--1-1-1--1-1-1--1-1-1--1-1-1--|
P.M. . .  . . .  . . .  . . .  . . .  .  . . .  . . .  . . .  . . .

Matze
D|--------------------------------------------------------------------|
A|--------------------------------------------------------------------|
F|----7----7----7----7----7----7----7----7----7----7----7----7----7---|
C|-11---11---11---11---11---11---11---11---11---11---11---11---11-----|
G|--------------------------------------------------------------------|
C|--------------------------------------------------------------------|

Andi & Matze
D|----------------------------------------------------------------------|
A|----------------------------------------------------------------------|
F|----------------------------------------------------------------------|
C|----------------------------------------------------------------------|
G|----------------------------------------------------------------------|
C|-000-000-000-000--000--0--000-000--000-000-000-000--000--0--000-000---|
P.M... ... ... ...  ...  .  ... ...  ... ... ... ...  ...  .  ... ...

Andi & Matze
D|-----------------------------------------------------------------------|
A|-----------------------------------------------------------------------|
F|-----------------------------------------------------------------------|
C|-----------------------------------------------------------------------|
G|---------------------------------------------8*------------------------|
C|-000--0-00000000--000-000--000--000-000--000-----000-000--000--000-000-|
P.M...  . ........  ... ...  ...  ... ...  ...     ... ...  ...  ... ...

-Coro-
Andi - (x4)
D|-------------------------------------------------------------------------|
A|-------------------------------------------------------------------------|
F|-------------------------------------------------------------------------|
C|-------------------------------------------------------------------------|
G|-----7-8~------------12p10---10p7-8~-----7-8~------------12p10---10p7-8~-|
C|-0-0------0-0000-0-0-------0---------0-0------0-0000-0-0-------0---------|
P.M. .      . .... . .       .         . .      . .... . .       .

Matze
D|-------------------------------------------------------------------------|
A|-------------------------------------------------------------------------|
F|-------------------------------------------------------------------------|
C|----------------------------------------------------------8~~~--5~~~-----|
G|----------------------------------------------------------8~~~--5~~~-----|
C|-0-0------0-0000-0-0-----------------0-0------0-0000-0-0--8~~~--5~~~-----|
P.M. .      . .... . .                 . .      . .... . .

D|-------------------------------------------|
A|-------------------------------------------|
F|-------------------------------------------|
C|-------------------------------------------|
G|------11-13~------------15p13---13p10p11~--|
C|--0-0--------0-0000-0-0-------0------------|x4
P.M . .        . .... . .       .

-Puente II-
Andi
D|---------------------------------------------|      |-----------|
A|---------------------------------------------|      |-----------|
F|---------------------------------------------|      |-----------|
C|-1-0---3-5------1-0--1-0----1-0--3-5---1-0---|      |---5\0-----|
G|-1-0---3-5------1-0--1-0----1-0--3-5---1-0---|      |---5\0-----|
C|-1-0---3-5------1-0--1-0----1-0--3-5---1-0---|x2    |---5\0-----|

Matze
D|---------------------------------------------|
A|---------------------------------------------|
F|---------------------------------------------|
C|---------------------------------------------|
G|-0-0-0-0-0-0-0-0-0-0-0-0-0-0-0-0-0-0-0-0-0-0-|
C|-0-0-0-0-0-0-0-0-0-0-0-0-0-0-0-0-0-0-0-0-0-0-|x2
P.M. . . . . . . . . . . . . . . . . . . . . . 

Andi
D|-------------------------------------------------------------------|
A|-------------------------------------------------------------------|
F|-------------------------------------------------------------------|
C|-------------------------------------------------------------------|
G|1-0---3-5---------1-0---1-0-----1-0---3-5---1-0----7-8---8-10------|
C|1-0-0-3-5-0-0-0-0-1-0-0-1-0-0-0-1-0-0-3-5-0-1-0--0-----0------0-0--|x2
P.M   .     . . . .     .     . .     .     .      .     .      . .   

Matze
D|----------------------------------------------------------------------|
A|----------------------------------------------------------------------|
F|----------------------------------------------------------------------|
C|----------------------------------------------------------------------|
G|1-0---3-5---------1-0---1-0-----1-0---3-5---1-0----10-12---12-13------|
C|1-0-0-3-5-0-0-0-0-1-0-0-1-0-0-0-1-0-0-3-5-0-1-0--0-------0-------0-0--|x2
P.M   .     . . . .     .     . .     .     .      .       .       . .   

Andi
D|------------------------------------------------------------------------|
A|------------------------------------------------------------------------|
F|------------------------------------------------------------------------|
C|-----8-10-------12-10---14-12-10-12------8-10-------12-10---14-12-10-12-|
G|------------------------------------------------------------------------|
C|-0-0------0-0-0-------0--------------0-0------0-0-0-------0-------------|
P.M. .      . . .       .              . .      . . .       .

Matze
D|------------------------------------------------------------------------|
A|------------------------------------------------------------------------|
F|------------------------------------------------------------------------|
C|-----12-14-------15-14---17-15-14-15-----12-14-------15-14---17-15-14-15|
G|------------------------------------------------------------------------|
C|-0-0-------0-0-0-------0-------------0-0-------0-0-0-------0------------|
P.M. .       . . .       .             . .       . . .       .

Andi
D|-------------------------------------------------------------|
A|-------------------------------------------------------------|
F|-------------------------------------------------------------|
C|-------------------------------------------------------------|
G|-----3-5-------7-8---10-8-7-8------3-5-------8-7---10-8-7-8--|
C|-0-0-----0-0-0-----0-----------0-0-----0-0-0-----0-----------|

Matze
D|----------------------------------------------------------------------|
A|----------------------------------------------------------------------|
F|----------------------------------------------------------------------|
C|----------------------------------------------------------------------|
G|-----7-8-------12-10---13-12-10-12------7-8-------12-10---13-12-10-12-|
C|-0-0-----0-0-0-------0--------------0-0-----0-0-0-------0-------------|

Andi & Matze
D|-------------------------------------------------------------------------|
A|-------------------------------------------------------------------------|
F|-------------------------------------------------------------------------|
C|-------------------------------------------------------------------------|
G|-0-0----------------0-0---------------0-0---------------0-0--------------|
C|-0-0--0-00000-0-0---0-0--0-00000-0-0--0-0--0-00000-0-0--0-0--0-00000-0-0-|
P.M. .  . ..... . .   . .  . ..... . .  . .  . ..... . .  . .  . ..... . .
comments
We did not receive enough feedback on this tab! Please rate:
1 2 3 4 5
I want to post or [tab]
guest
You may want to rate the tab now too:
select rating
Please do not post tabs as comments. Select "correction" instead!