Oops, an error
Loading. Please wait.

Dance With Me Bass Tab

1,137 views 1 this week
no commentswrite comment
1 2 3 4 5
please rate
Autoscroll
+/-
esc
set tempo
stop
Contributor
Difficulty
novice
WARNING: You are trying to view
                                    content from Ultimate-Guitar.com
                                    in an unauthorized application,
                                    which is prohibited.

                                    Please use an official Ultimate
                                    Guitar Tabs application for iPhone,
                                    iPad or Android to access legitimate
                                    chords, guitar, bass, and drum tabs
                                    from Ultimate-Guitar.com database.

                                    Type "ultimate guitar tabs" in Apple
                                    App Store's or Android Market's
                                    search to find the application.
SONG:   Dance With Me
ARTIST: The Sounds
ALBUM:  Living in America
YEAR:   2002
TRACK:  1
TUNING: GDAE (standard)


The bass is very hard to hear in this song and plays primarily a background role.
During the verse, you can periodically hear a funky slap lick, but I think that comes
from the guitar, not the bass. Whatever; here's the notes, play them as you wish.


(0:06)
G|-----------------------------------------------------------------|
D|-----------------------------------------------------------------|
A|----5>----8>----3>----1>----5>----8>----3>----1>----1~----3~~----|
E|-----------------------------------------------------------------|


(0:23)                                      Note you're NOT holding single notes here at the end
G|------------------------------------------------------------|  -- you're still strumming
D|------------------------------------------------------------|
A|----------5>----3>-----------5>---5-5-5---1>----------1>----|
E|----1>------------------1>----------------------3>----------|
  Funny how we've seem to made it
  Funny how we can even walk up straight
  Last night, you sat home waiting
  And I got home much too late
  Yeah, too late


(0:43)
G|------------------------------------------------------------|
D|------------------------------------------------------------|
A|----------5>----3>-----------5>---5-5-5---1>----------1>----|
E|----1>------------------1>----------------------3>----------|
  And so what if we loose our minds?
  And so what if it doesn't make much sense?
  At least we know we're lazy
  At least we know how to play
  We're so great


(1:02)
G|-------------------------------------------------------------|
D|-------------------------------------------------------------|
A|----5>----8>----3>----1>------5>----8>----3>----1>----1~~----|
E|-------------------------------------------------------------|
  Well, come on
  Well, come on!
  Come get up and dance with me, yeah
  Well, no more
  Well, no more!
  Blue days and lonely years


(1:19)
G|------------------------------------------------------------|
D|------------------------------------------------------------|
A|----------5>----3>-----------5>---5-5-5---1>----------1>----|
E|----1>------------------1>----------------------3>----------|
  And I'm afraid I need my baby
  I'm afraid he doesn't know it yet
  Someday I will tell him, maybe
  It's been like this since I don't know when
  But it's great


(1:38)
G|------------------------------------------------------|
D|------------------------------------------------------|
A|----5>----8>----3>----1>------5>----8>----3>----1>----|
E|------------------------------------------------------|
  Well, come on
  Well, come on!
  Come get up and dance with me, yeah
  Well, no more
  Well, no more!
  Blue days and lonely years


(1:51)
G|------------------------------------------------------|
D|------------------------------------------------------|
A|----5>----8>----3>----1>------5>----8>----3>----1>----|
E|------------------------------------------------------|
  Well, come on
  Well, come on!
  Come get up and dance with me, yeah
  Well, no more
  Well, no more!
  Blue days for you, my dear


  I've always been told
  You will never grow old
  You live your life too fast
  I don't need to rest
  I'm not old and tired
  But I've been through fire
  And I've seen enough
  And I might never be the --


(2:18)
G|-----------------------|
D|-----------------------|
A|----1>----3>----5~~----|
E|-----------------------|
  -- same again
  Have you seen my friends?
  They're just the same


(2:25)                 (2:31)
G|-----------------------------------------|
D|-----------------------------------------|
A|-----------------------5>----8>----3>----|
E|----10\----------------------------------|


(2:37)
G|------------------------------------------------------|
D|------------------------------------------------------|
A|----5>----8>----3>----1>------5>----8>----3>----1>----|
E|------------------------------------------------------|
  Well, come on
  Well, come on!
  Come get up and dance with me, yeah
  Well, no more
  Well, no more!
  Blue days and lonely years


(2:51)
G|------------------------------------------------------|
D|------------------------------------------------------|
A|----5>----8>----3>----1>------5>----8>----3>----1>----|
E|------------------------------------------------------|
  Well, come on
  Well, come on!
  Come get up and dance with me, yeah
  Well, no more
  Well, no more!
  Blue days for you, my dear


(3:04)
G|-----------------------------------|
D|-----------------------------------|
A|----1>----3>----3-3-3-3-3-3--5/----|
E|-----------------------------------|
comments
We did not receive enough feedback on this tab! Please rate:
print report bad tab
1 2 3 4 5
I want to post or [tab]
guest
You may want to rate the tab now too:
select rating
Please do not post tabs as comments. Select "correction" instead!