Oops, an error
Loading. Please wait.

Out Of My League Tab

667 views 1 this week
no commentswrite comment
1 2 3 4 5
please rate
add to favorites launch autoscroll
font size
0
reset
Autoscroll
+/-
esc
set tempo
stop
Contributor
Difficulty
novice
WARNING: You are trying to view
                                    content from Ultimate-Guitar.com
                                    in an unauthorized application,
                                    which is prohibited.

                                    Please use an official Ultimate
                                    Guitar Tabs application for iPhone,
                                    iPad or Android to access legitimate
                                    chords, guitar, bass, and drum tabs
                                    from Ultimate-Guitar.com database.

                                    Type "ultimate guitar tabs" in Apple
                                    App Store's or Android Market's
                                    search to find the application.
Legends:
h – hammer
/ - slide up


Capo on 6th Fret


Intro:
e|-------3---0h2-0---------------------------3---0h2-0-----0---2--2h3-2-0---|
B|-----------------3-------------0---------------------3------0--0----------|
G|------0-0---------------0-2--0---2-0------0-0-----------------------------|
D|-----------0-------------------0---------------0---------2----------------|
A|---3-----------------------------------3----------------------------------|
E|---------------------3----------------------------------------------------|

e|-------3---0h2-0----------------------------------------------------------|
B|-----------------3-------------0-----------1-1-----3-3-----3-3-----0-0----|
G|------0-0---------------0-2--0---2-0--------0-------0-------0-------0-----|
D|-----------0-------------------0----------2-------0-------0-------0-------|
A|---3-----------------------------------0-------2-------3-------3----------|
E|---------------------3----------------------------------------------------|

e|--------------------------------------------------------------------------|
B|-------3-3-----0-0--------------------------------------------------------|
G|--------0-------0---------------------------------------------------------|
D|------0-------0---------0-------------------------------------------------|
A|---3-------3--------2/3---------------------------------------------------|
E|---------------------------3----------------------------------------------|


Verse 1:
e|-------3---0h2-0---------------------------3---0h2-0-----0--2--2h3-2-0----|
B|-----------------3-------------0---------------------3-----0--0-----------|
G|------0-0---------------0-2--0---2-0------0-0-----------------------------|
D|-----------0-------------------0---------------0---------2----------------|
A|---3-----------------------------------3----------------------------------|
E|---------------------3----------------------------------------------------|

e|---------------------------------------------------0---2--2h3-2-0---------|
B|-------1-1-----3-3-----3-3-----0-0-----3-3-----0-0----0--0----------------|
G|--------0-------0-------0-------0-------0-------0-------------------------|
D|------2-------0-------0-------0-------0-------0----2----------------------|
A|---0-------2-------3-------3-------3-------3------------------------------|
E|--------------------------------------------------------------------------|

e|-------3---0h2-0---------------------------3---0h2-0-----0--2--2h3-2-0----|
B|-----------------3-------------0---------------------3-----0--0-----------|
G|------0-0---------------0-2--0---2-0------0-0-----------------------------|
D|-----------0-------------------0---------------0---------2----------------|
A|---3-----------------------------------3----------------------------------|
E|---------------------3----------------------------------------------------|

e|--------------------------------------------------------------------------|
B|-------1-1-----3-3-----3-3-----0-0-----3-3-----0-0-----3-3-----0-0--------|
G|--------0-------0-------0-------0-------0-------0-------0-------0---------|
D|------2-------0-------0-------0-------0-------0-------0-------0-----------|
A|---0-------2-------3-------3-------3-------3-------3-------3--------------|
E|--------------------------------------------------------------------------|


Chorus 1:
e|--------------------------------------------------------------------------|
B|-------3-3-----3-3-----3-3-----3-3-----3-3-----3-3-----3-3-----3-3--------|
G|--------0-------0-------0-------0-------0-------0-------0-------0---------|
D|-------------2-------------------------------2----------------------------|
A|-----2-----3---------2-------2-------2-----3---------2-------2------------|
E|---3---------------3-------3-------3---------------3-------3--------------|

e|----------------------------------------------------0--2--2h3-2-0---------|
B|-------1-1-----3-3-----3-3-----0-0-----3-3-----0-0----0--0----------------|
G|--------0-------0-------0-------0-------0-------0-------------------------|
D|------2-------0-------0-------0-------0-------0-----2---------------------|
A|---0-------2-------3-------3-------3-------3------------------------------|
E|--------------------------------------------------------------------------|

e|-------3---0h2-0----------------------------------------------------------|
B|-----------------3--------0-----------------------------------------------|
G|------0-0---------------0----2--0--0--------------------------------------|
D|-----------0---------------------------0----------------------------------|
A|---3-------------------------3-----2/3------------------------------------|
E|---------------------3-------------------3--------------------------------|


Verse 2:
e|-------3---0h2-0---------------------------3---0h2-0-----0--2--2h3-2-0----|
B|-----------------3-------------0---------------------3-----0--0-----------|
G|------0-0---------------0-2--0---2-0------0-0-----------------------------|
D|-----------0-------------------0---------------0---------2----------------|
A|---3-----------------------------------3----------------------------------|
E|---------------------3----------------------------------------------------|

e|--------------------------------------------------------------------------|
B|-------1-1-----3-3-----3-3-----0-0-----3-3-----0-0-----3-3-----0-0--------|
G|--------0-------0-------0-------0-------0-------0-------0-------0---------|
D|------2-------0-------0-------0-------0-------0-------0-------0-----------|
A|---0-------2-------3-------3-------3-------3-------3-------3--------------|
E|--------------------------------------------------------------------------|


Chorus 2:
e|--------------------------------------------------------------------------|
B|-------3-3-----3-3-----3-3-----3-3-----3-3-----3-3-----3-3-----3-3--------|
G|--------0-------0-------0-------0-------0-------0-------0-------0---------|
D|-------------2-------------------------------2----------------------------|
A|-----2-----3---------2-------2-------2-----3---------2-------2------------|
E|---3---------------3-------3-------3---------------3-------3--------------|



e|----------------------------------------------------0--2--2h3-2-0---------|
B|-------1-1-----3-3-----3-3-----0-0-----3-3-----0-0----0--0----------------|
G|--------0-------0-------0-------0-------0-------0-------------------------|
D|------2-------0-------0-------0-------0-------0-----2---------------------|
A|---0-------2-------3-------3-------3-------3------------------------------|
E|--------------------------------------------------------------------------|

e|--------------------------------------------------------------------------|
B|-------1-1-----3-3-----3-3-----0-0-----3-3-----0-0------------------------|
G|--------0-------0-------0-------0-------0-------0-------------------------|
D|------2-------0-------0-------0-------0-------0---------------------------|
A|---0-------2-------3-------3-------3-------3------------------------------|
E|--------------------------------------------------------------------------|


Bridge:
e|-------3---0h2-0---------------------------3---0h2-0-----0---2--2h3-2-0---|
B|-----------------3-------------0---------------------3------0--0----------|
G|------0-0---------------0-2--0---2-0------0-0-----------------------------|
D|-----------0-------------------0---------------0---------2----------------|
A|---3-----------------------------------3----------------------------------|
E|---------------------3----------------------------------------------------|

e|--------------------------------------------------------------------------|
B|-------1-1-----3-3-----3-3-----0-0-----3-3-----0-0-----3-3------0-0-------|
G|--------0-------0-------0-------0-------0-------0-----0-0------0-0--------|
D|------2-------0-------0-------0-------0-------0----0--------0-------------|
A|---0-------2-------3-------3-------3-------3------------------------------|
E|--------------------------------------------------------------------------|


Coda:
e|-------3---0h2-0---------------------------3---0h2-0-----0---2--2h3-2-0---|
B|-----------------3-------------0---------------------3------0--0----------|
G|------0-0---------------0-2--0---2-0------0-0-----------------------------|
D|-----------0-------------------0---------------0---------2----------------|
A|---3-----------------------------------3----------------------------------|
E|---------------------3----------------------------------------------------|

e|--------------------------------------------------------------------------|
B|-------1-1-----3-3-----3-3-----0-0-----3-3-----0-0------------------------|
G|--------0-------0-------0-------0-------0-------0-------------------------|
D|------2-------0-------0-------0-------0-------0---------------------------|
A|---0-------2-------3-------3-------3-------3------------------------------|
E|----------------------------------------------------3---------------------|



Sequence of Song:
Intro
Verse 1
Chorus 1
Verse 2
Chorus 2
Bridge
Chorus 2
Coda
comments
We did not receive enough feedback on this tab! Please rate:
1 2 3 4 5
I want to post or [tab]
guest
You may want to rate the tab now too:
select rating
Please do not post tabs as comments. Select "correction" instead!