Oops, an error
Loading. Please wait.

Empty Space Tab

16,600 views 282 this week
4 commentsread comments
1 2 3 4 5
excellent!
x 10
Autoscroll
+/-
esc
set tempo
stop
Contributor
WARNING: You are trying to view
                                    content from Ultimate-Guitar.com
                                    in an unauthorized application,
                                    which is prohibited.

                                    Please use an official Ultimate
                                    Guitar Tabs application for iPhone,
                                    iPad or Android to access legitimate
                                    chords, guitar, bass, and drum tabs
                                    from Ultimate-Guitar.com database.

                                    Type "ultimate guitar tabs" in Apple
                                    App Store's or Android Market's
                                    search to find the application.
Artist: The Story So Far
Album: What You Don’t See
Track: Empty Space
Tuning: Half step down (D#G#C#F#A#D# OR EbAbDbGbBbeb)
NB: . means palm mute, mid-section repeat between ‘o’

Intro
eb|------------------------------|------------------------------|
Bb|------------------------------|------------------------------|
Gb|-4-4-4------------------------|-4-4-4------------------------|
Db|-x-x-x-4-4-4-5-5-5-5-5-5-5-5-5|-x-x-x-4-4-4-5-5-5-5-5-5------|
Ab|-3-3-3-3-3-3-3-3-3-3-3-3-3-3-3|-3-3-3-3-3-3-3-3-3-3-3-3-5-5--|
Eb|------------------------------|-------------------------3-3--|
                                                           . .
eb|------------------------------|------------------------------|
Bb|-3--------------3-------------|-3--------------3-------------|
Gb|------4--------------4--------|------4--------------4--------|
Db|-----------5--------------5---|-----------5--------------5---|
Ab|------------------------------|------------------------------|
Eb|------------------------------|------------------------------|

eb|------------------------------|------------------------------|
Bb|-----------------------5p03p0-|-----------------------5p03p0-|
Gb|-0h2h4p0-0---0-0h2h4p0--------|-0h2h4p0-0---0-0h2h4p0--------|
Db|---------4-/-5----------------|---------4-/-5----------------|
Ab|------------------------------|------------------------------|
Eb|------------------------------|------------------------------|

eb|------------------------------|------------------------------|
Bb|-3--------------3-------------|-3--------------3-------------|
Gb|------4--------------4--------|------4--------------4--------|
Db|-----------5--------------5---|-----------5--------------5---|
Ab|------------------------------|------------------------------|
Eb|------------------------------|------------------------------|

Verse 1
eb|------------------------------|------------------------------|
Bb|------------------------------|------------------------------|
Gb|-5-5-5-5-5-5-0-0-0-0-0-0-0-0-0|-0-0-0-0-0-0-0-0-0-0-0-0-7-7-7|
Db|-5-5-5-5-5-5-5-5-5-5-5-5-5-5-5|-5-5-5-5-5-5-5-5-5-5-5-5-5-5-5|
Ab|-3-3-3-3-3-3------------------|------------------------------|
Eb|------------------------------|------------------------------|

eb|------------------------------|------------------------------|
Bb|------------------------------|------------------------------|
Gb|-0-0-0-0-0-0-0-0-0-0-0-0-0-0-0|-0-0-0-0-0-0-0-0-0-0-0-0-7-7-7|
Db|-5-5-5-5-5-5-5-5-5-5-5-5-5-5-5|-5-5-5-5-5-5-5-5-5-5-5-5-5-5-5|
Ab|------------------------------|------------------------------|
Eb|------------------------------|------------------------------|

eb|------------------------------|------------------------------|
Bb|------------------------------|------------------------------|
Gb|-5-5-5-5-5-5------------------|------------------------------|
Db|-5-5-5-5-5-5-5-5-5-5-5-5-5-5-5|-5-5-5-5-5-5-5-5-5-5-5-5-5-5-5|
Ab|-3-3-3-3-3-3-5-5-5-5-5-5-5-5-5|-5-5-5-5-5-5-5-5-5-5-5-5-5-5-5|
Eb|-------------3-3-3-3-3-3-3-3-3|-3-3-3-3-3-3-3-3-3-3-3-3-3-3-3|
    . . . . . . . . . . . . . . .  . . . . . . . . . . . . . . .
eb|------------------------------|------------------------------|
Bb|------------------------------|------------------------------|
Gb|-5-5-5-5-5-5------------------|------------------------------|
Db|-5-5-5-5-5-5-5-5-5-5-5-5-5-5-5|-5-5-5-5-5-5-5-5-5-5-5-5-5-5-5|
Ab|-3-3-3-3-3-3-5-5-5-5-5-5-5-5-5|-5-5-5-5-5-5-5-5-5-5-5-5-5-5-5|
Eb|-------------3-3-3-3-3-3-3-3-3|-3-3-3-3-3-3-3-3-3-3-3-3-3-3-3|
    . . . . . . . . . . . . . . .  . . . . . . . . . . . . . . .

Chorus
Lead                           x3
eb|------------------------------|------------------------------|
Bb|o----------------------------o|------------------------------|
Gb|-2---2h4p0---7---4---0---2----|-2---2h4p0---7---4---2---2----|
Db|-------------0---0---0---0----|-------------0---0---0---0----|
Ab|o----------------------------o|------------------------------|
Eb|------------------------------|------------------------------|
                               x3
eb|------------------------------|------------------------------|
Bb|o----------------------------o|------------------------------|
Gb|-2---2h4p0---7---4---0---2----|-2---2h4p0---7---4---2---0----|
Db|-------------0---0---0---0----|-------------0---0---0---0----|
Ab|o----------------------------o|------------------------------|
Eb|------------------------------|------------------------------|

Rhythm
eb|------------------------------|------------------------------|
Bb|------------------------------|------------------------------|
Gb|-5---5-5-5---5---5---5---5----|-5---5-5-5---5---5------------|
Db|-5---5-5-5---5---5---5---5----|-5---5-5-5---5---5---5---5----|
Ab|-3---3-3-3---3---3---3---3----|-3---3-3-3---3---3---5---5----|
Eb|------------------------------|---------------------3---3----|

eb|------------------------------|------------------------------|
Bb|------------------------------|------------------------------|
Gb|-2---2-2-2---2---2---2---2----|-2---2-2-2---2---2------------|
Db|-2---2-2-2---2---2---2---2----|-2---2-2-2---2---2---5---5----|
Ab|-0---0-0-0---0---0---0---0----|-0---0-0-0---0---0---5---5----|
Eb|------------------------------|---------------------3---3----|

eb|------------------------------|------------------------------|
Bb|------------------------------|------------------------------|
Gb|-5---5-5-5---5---5---5---5----|-5---5-5-5---5---5------------|
Db|-5---5-5-5---5---5---5---5----|-5---5-5-5---5---5---5---5----|
Ab|-3---3-3-3---3---3---3---3----|-3---3-3-3---3---3---5---5----|
Eb|------------------------------|---------------------3---3----|

eb|------------------------------|------------------------------|
Bb|------------------------------|------------------------------|
Gb|-2---2-2-2---2---2---2---2----|-2---2-2-2---7---4---2--------|
Db|-2---2-2-2---2---2---2---2----|-2---2-2-2---7---4---2---5----|
Ab|-0---0-0-0---0---0---0---0----|-0---0-0-0---5---2---0---5----|
Eb|------------------------------|-------------------------3----|

Verse 2
eb|------------------------------|------------------------------|
Bb|------------------------------|------------------------------|
Gb|-5-5-5-5-5-5------------------|------------------------------|
Db|-5-5-5-5-5-5-5-5-5-5-5-5-5-5-5|-5-5-5-5-5-5-5-5-5-5-5-5-5-5-5|
Ab|-3-3-3-3-3-3-5-5-5-5-5-5-5-5-5|-5-5-5-5-5-5-5-5-5-5-5-5-5-5-5|
Eb|-------------3-3-3-3-3-3-3-3-3|-3-3-3-3-3-3-3-3-3-3-3-3-3-3-3|
    
eb|------------------------------|------------------------------|
Bb|------------------------------|------------------------------|
Gb|-5-5-5-5-5-5------------------|------------------------------|
Db|-5-5-5-5-5-5-2-2-2-2-2-2-2-2-2|-2-2-2-2-2-2-2-2-2-2-2-2-2-2-2| All x2
Ab|-3-3-3-3-3-3-2-2-2-2-2-2-2-2-2|-2-2-2-2-2-2-2-2-2-2-2-2-2-2-2|
Eb|-------------0-0-0-0-0-0-0-0-0|-0-0-0-0-0-0-0-0-0-0-0-0-0-0-0|

Bridge
                                                               x2
eb|------------------------------|------------------------------|
Bb|o-----------------------------|------5-5-5------------------o|
Gb|-4-4-4------------------------|4-4-4-4-4-4-4-4-4-4-4-4-4-4-4-|
Db|-x-x-x-4-4-4-5-5-5-5-5-5-5-5-5|0-0-0-0-0-0-0-0-0-0-0-0-0-0-0-|
Ab|o3-3-3-3-3-3-3-3-3-3-3-3-3-3-3|5-5-5-5-5-5-5-5-5-5-5-5-5-5-5o|
Eb|------------------------------|------------------------------|

eb|------------------------------|------------------------------|
Bb|-0---0---0--------------------|------------------------------|
Gb|-7-/-9-\-4--------------------|------------------------------|
Db|------------------------------|------------------------------|
Ab|------------------------------|------------------------------|
Eb|------------------------------|------------------------------|

eb|------------------------------|------------------------------|
Bb|-0---0------------------------|-0---0------------------------|
Gb|-7-\-4------------------------|-2---0------------------------|
Db|------------------------------|------------------------------|
Ab|------------------------------|------------------------------|
Eb|------------------------------|------------------------------|

eb|------------------------------|------------------------------|
Bb|-0---0---0--------------------|------------------------------|
Gb|-7-/-9-\-4--------------------|------------------------------|
Db|------------------------------|------------------------------|
Ab|------------------------------|------------------------------|
Eb|------------------------------|------------------------------|

eb|------------------------------|------------------------------|
Bb|-3--------------3-------------|-3--------------3-------------|
Gb|------4--------------4--------|------4--------------4--------|
Db|-----------5--------------5---|-----------5--------------5---|
Ab|------------------------------|------------------------------|
Eb|------------------------------|------------------------------|

eb|------------------------------|------------------------------|
Bb|-----------------------5p03p0-|-----------------------5p03p0-|
Gb|-0h2h4p0-0---0-0h2h4p0--------|-0h2h4p0-0---0-0h2h4p0--------|
Db|---------4-/-5----------------|---------4-/-5----------------|
Ab|------------------------------|------------------------------|
Eb|------------------------------|------------------------------|

eb|------------------------------|------------------------------|
Bb|-3--------------3-------------|-3--------------3-------------|
Gb|------4--------------4--------|------4--------------4--------|
Db|-----------5--------------5---|-----------5--------------5---|
Ab|------------------------------|------------------------------|
Eb|------------------------------|------------------------------|

Last chorus
Lead
eb|------------------------------|------------------------------|
Bb|------------------------------|------------------------------|
Gb|------------------------------|------------------------------|
Db|------------------------------|------------------------------|
Ab|------------------------------|---------------------5-5-5-5--|
Eb|------------------------------|---------------------3-3-3-3--|
                                                       . . . .

eb|------------------------------|------------------------------|
Bb|------------------------------|------------------------------|
Gb|-2---2h4p0---7---4---0---2----|-2---2h4p0---7---4---2---2----|
Db|-------------0---0---0---0----|-------------0---0---0---0----|
Ab|------------------------------|------------------------------|
Eb|------------------------------|------------------------------|
                               x3
eb|------------------------------|------------------------------|
Bb|o----------------------------o|------------------------------|
Gb|-2---2h4p0---7---4---0---2----|-2---2h4p0---7---4---2---0----|
Db|-------------0---0---0---0----|-------------0---0---0---0----|
Ab|o----------------------------o|------------------------------|
Eb|------------------------------|------------------------------|
                               x3
eb|------------------------------|------------------------------|
Bb|o----------------------------o|------------------------------|
Gb|-2---2h4p0---7---4---0---2----|-2---2h4p0---7---4---2---2----|
Db|-------------0---0---0---0----|-------------0---0---0---0----|
Ab|o----------------------------o|------------------------------|
Eb|------------------------------|------------------------------|
                               x3
eb|------------------------------|------------------------------|
Bb|o----------------------------o|------------------------------|
Gb|-2---2h4p0---7---4---0---2----|-2---2h4p0---7---4---2---0----|
Db|-------------0---0---0---0----|-------------0---0---0---0----|
Ab|o----------------------------o|------------------------------|
Eb|------------------------------|------------------------------|

Rhythm
eb|------------------------------|------------------------------|
Bb|------------------------------|------------------------------|
Gb|-5---5-5-5---5---5---5---5----|-5---5-5-5---5---5------------|
Db|-5---5-5-5---5---5---5---5----|-5---5-5-5---5---5------------|
Ab|-3---3-3-3---3---3---3---3----|-3---3-3-3---3---3---5-5-5-5--|
Eb|------------------------------|---------------------3-3-3-3--|
                                                       . . . .
eb|------------------------------|------------------------------|
Bb|------------------------------|------------------------------|
Gb|-2---2-2-2---2---2---2---2----|-2---2-2-2---2---2------------|
Db|-2---2-2-2---2---2---2---2----|-2---2-2-2---2---2---5---5----|
Ab|-0---0-0-0---0---0---0---0----|-0---0-0-0---0---0---5---5----|
Eb|------------------------------|---------------------3---3----|

eb|------------------------------|------------------------------|
Bb|------------------------------|------------------------------|
Gb|-5---5-5-5---5---5---5---5----|-5---5-5-5---5---5------------|
Db|-5---5-5-5---5---5---5---5----|-5---5-5-5---5---5---5---5----|
Ab|-3---3-3-3---3---3---3---3----|-3---3-3-3---3---3---5---5----|
Eb|------------------------------|---------------------3---3----|

eb|------------------------------|------------------------------|
Bb|------------------------------|------------------------------|
Gb|-2---2-2-2---2---2---2---2----|-2---2-2-2---2---2------------|
Db|-2---2-2-2---2---2---2---2----|-2---2-2-2---2---2---5---5----|
Ab|-0---0-0-0---0---0---0---0----|-0---0-0-0---0---0---5---5----|
Eb|------------------------------|---------------------3---3----|

eb|------------------------------|------------------------------|
Bb|------------------------------|------------------------------|
Gb|-5---5-5-5---5---5---5---5----|-5---5-5-5---5---5------------|
Db|-5---5-5-5---5---5---5---5----|-5---5-5-5---5---5---5---5----|
Ab|-3---3-3-3---3---3---3---3----|-3---3-3-3---3---3---5---5----|
Eb|------------------------------|---------------------3---3----|

eb|------------------------------|------------------------------|
Bb|------------------------------|------------------------------|
Gb|-2---2-2-2---2---2---2---2----|-2---2-2-2---2---2------------|
Db|-2---2-2-2---2---2---2---2----|-2---2-2-2---2---2---5---5----|
Ab|-0---0-0-0---0---0---0---0----|-0---0-0-0---0---0---5---5----|
Eb|------------------------------|---------------------3---3----|

eb|------------------------------|------------------------------|
Bb|------------------------------|------------------------------|
Gb|-5---5-5-5---5---5---5---5----|-5---5-5-5---5---5------------|
Db|-5---5-5-5---5---5---5---5----|-5---5-5-5---5---5---5---5----|
Ab|-3---3-3-3---3---3---3---3----|-3---3-3-3---3---3---5---5----|
Eb|------------------------------|---------------------3---3----|

eb|------------------------------|------------------------------|
Bb|------------------------------|------------------------------|
Gb|-2---2-2-2---2---2---2---2----|-2---2-2-2---7---4---2--------|
Db|-2---2-2-2---2---2---2---2----|-2---2-2-2---7---4---2---5----|
Ab|-0---0-0-0---0---0---0---0----|-0---0-0-0---5---2---0---5----|
Eb|------------------------------|-------------------------3----|

4 comments total. Showing first comments.
0 reply
Pagehoofd wrote on May 4 2013, 05:59 am

eb|------------------------------|------------------------------|
Bb|-3--------------3-------------|-3--------------3-------------|
Gb|------4--------------4--------|------------------------------|
Db|-----------5--------------5---|------4----5--------4-----5---|
Ab|------------------------------|------------------------------|
Eb|------------------------------|------------------------------|

This one is better.

0 reply
TankBass wrote on January 10 2014, 02:05 pm

Think you would be able to tab this song on bass as well?

0 reply
rejected02 wrote on January 11 2014, 01:13 am

Any chance you can make this on Guitar Pro? :)

I want to post or [tab]
guest
You may want to rate the tab now too:
select rating
Please do not post tabs as comments. Select "correction" instead!