Oops, an error
Loading. Please wait.

Four Years Tab

6,917 views 42 this week
no commentswrite comment
1 2 3 4 5
accurate
x 8
add to favorites launch autoscroll
font size
0
reset
Autoscroll
+/-
esc
set tempo
stop
Contributor
WARNING: You are trying to view
                                    content from Ultimate-Guitar.com
                                    in an unauthorized application,
                                    which is prohibited.

                                    Please use an official Ultimate
                                    Guitar Tabs application for iPhone,
                                    iPad or Android to access legitimate
                                    chords, guitar, bass, and drum tabs
                                    from Ultimate-Guitar.com database.

                                    Type "ultimate guitar tabs" in Apple
                                    App Store's or Android Market's
                                    search to find the application.
Artist: The Story So Far
Album: Under Soil and Dirt
Track: Four Years
Guitar 1: Rhythm, Standard (EADGBe)
Guitar 2: Lead, Standard (EADGBe)

Updated 25/07/13 - Guitar 1 chorus changed 799xxx to 757xxx

Guitar 1
Intro
E|--------------------------------|--------------------------------|
B|--------------------------------|--------------------------------|
G|--------------------------------|--------------------------------|
D|-9--9--9--7--5---5-5---5-5---5--|-5-5---5-5---5---5-5-x-4--4-4-4-|
A|-9--9--9--7--5---5-5---5-5---5--|-5-5---5-5---5---5-5-x-5--5-5-5-|
E|-7--7--7--5--3---3-3---3-3---3--|-3-3---3-3---3---3-3-x-2--2-2-2-|

E|--------------------------------|--------------------------------|
B|--------------------------------|--------------------------------|
G|-----------------------------x--|-7---7-7---7-7-x----------------|
D|-9--9--9--7--5---5-5---5-5---x--|-7---7-7---7-7-x-7---7-7---7-7--|
A|-9--9--9--7--5---5-5---5-5---x--|-5---5-5---5-5-x-7---7-7---7-7--|
E|-7--7--7--5--3---3-3---3-3---x--|---------------x-5---5-5---5-5--|

Verse 1
E|--------------------------------|--------------------------------|
B|--------------------------------|--------------------------------|
G|--------------------------------|--------------------------------|
D|-9--9--9--7--5---5-5---5-5---5--|-5-5---5-5---5---5-5-x-4--4-4-4-|
A|-9--9--9--7--5---5-5---5-5---5--|-5-5---5-5---5---5-5-x-5--5-5-5-|
E|-7--7--7--5--3---3-3---3-3---3--|-3-3---3-3---3---3-3-x-2--2-2-2-|

E|--------------------------------|--------------------------------|
B|--------------------------------|--------------------------------|
G|-----------------------------x--|-7---7-7---7-7-x----------------|
D|-9--9--9--7--5---5-5---5-5---x--|-7---7-7---7-7-x-7---7-7---7-7--|
A|-9--9--9--7--5---5-5---5-5---x--|-5---5-5---5-5-x-7---7-7---7-7--|
E|-7--7--7--5--3---3-3---3-3---x--|---------------x-5---5-5---5-5--|

E|--------------------------------|
B|--------------------------------|
G|--------------------------------|
D|-5-5-------------9-9-9-9-7-7-7-7|
A|-5-5-------------9-9-9-9-7-7-7-7|
E|-3-3-------------7-7-7-7-5-5-5-5|

Chorus
E|--------------------------------|--------------------------------|
B|--------------------------------|--------------------------------|
G|-----------------7-7------------|--------------------------------|
D|-5-5---5--5-5-5--7-7---7---7-7-7|-7-7---7--7-7-7--7-7---4---4-4-4| x2
A|-5-5---5--5-5-5--5-5---5---5-5-5|-7-7---7--7-7-7--5-5---5---5-4-4|
E|-3-3---3--3-3-3--------7---7-7-7|-5-5---5--5-5-5--7-7---2---2-2-2|

Post-chorus
E|--------------------------------|--------------------------------|
B|--------------------------------|--------------------------------|
G|--------------------------------|--------------------------------|
D|-5------------------------------|--------------------------------|
A|-5------------------------------|--------------------------------|
E|-3------------------------------|--------------------------------|

Verse 2
E|--------------------------------|--------------------------------|
B|--------------------------------|--------------------------------|
G|--------------------------------|--------------------------------|
D|-5------------------------------|--------------------------------|
A|-5---5-5-5-5-5-5-5-5-5-5-5-5-5-5|-5-5-5-5-5-5-5-5-5-5-5-5-5-5-5-5|
E|-3---3-3-3-3-3-3-3-3-3-3-3-3-3-3|-3-3-3-3-3-3-3-3-3-3-3-3-3-3-3-3|
       . . . . . . . . . . . . . .  . . . . . . . . . . . . . . . .
E|--------------------------------|--------------------------------|
B|--------------------------------|--------------------------------|
G|-----7-------7-------7-------7--|-----7-------7-------7---7-7-7-7|
D|-7-7-7---7-7-7---7-7-7---7-7-7--|-7-7-7---7-7-7---7-7-7---7-7-7-7|
A|-5-5-5---5-5-5---5-5-5---5-5-5--|-5-5-5---5-5-5---5-5-5---5-5-5-5|
E|--------------------------------|--------------------------------|
   . .     . .     . .     . .      . .     . .     . .
E|--------------------------------|--------------------------------|
B|--------------------------------|--------------------------------|
G|--------------------------------|--------------------------------|
D|-5------------------------------|--------------------------------|
A|-5---5-5-5-5-5-5-5-5-5-5-5-5-5-5|-5-5-5-5-5-5-5-5-5-5-5-5-5-5-5-5|
E|-3---3-3-3-3-3-3-3-3-3-3-3-3-3-3|-3-3-3-3-3-3-3-3-3-3-3-3-3-3-3-3|
       . . . . . . . . . . . . . .  . . . . . . .gradually release
E|--------------------------------|--------------------------------|
B|--------------------------------|--------------------------------|
G|--------------------------------|-7-7-7-7------------------------|
D|-5-5-5-5-----4-4-4-4-----7-7-7-7|-7-7-7-7-----9-9-9-9-----7-7-7-7| x2
A|-5-5-5-5-----5-5-5-5-----7-7-7-7|-5-5-5-5-----9-9-9-9-----7-7-7-7|
E|-3-3-3-3-----2-2-2-2-----5-5-5-5|-------------7-7-7-7-----5-5-5-5|

Chorus
E|--------------------------------|--------------------------------|
B|--------------------------------|--------------------------------|
G|-----------------7-7------------|--------------------------------|
D|-5-5---5--5-5-5--7-7---7---7-7-7|-7-7---7--7-7-7--7-7---4---4-4-4| x4
A|-5-5---5--5-5-5--5-5---5---5-5-5|-7-7---7--7-7-7--5-5---5---5-4-4|
E|-3-3---3--3-3-3--------7---7-7-7|-5-5---5--5-5-5--7-7---2---2-2-2|


Post-chorus
E|--------------------------------|--------------------------------|
B|--------------------------------|--------------------------------|
G|--------------------------------|--------------------------------|
D|-5------------------------------|--------------------/5---4------|
A|-5------------------------------|-----------------------------5--|
E|-3------------------------------|--------------------------------|

Bridge
E|--------------------------------|--------------------------------|
B|--------------------------------|--------------------------------|
G|--------------------------------|--------------------------------|
D|-----------------------------7--|--------------------------------| x6
A|-5-5-5-5-----5-5-5-5-----7-7-7-7|-5-5-5-5-----5-5-5-5-------7---0|
E|-3-3-3-3-----2-2-2-2-----5-5-5-5|-3-3-3-3-----2-2-2-2---2/5---5--|
   . . . .     . . . .     . .   .  . . . .     . . . .
Chorus
E|--------------------------------|--------------------------------|
B|--------------------------------|--------------------------------|
G|--------------------------------|-7-7-7-7-7-7--------------------|
D|-5-5-5-5-5-5-4-4-4-4-4-4-7-7-7-7|-7-7-7-7-7-7-7-7-7-7-7-7-7-7-7-7| x3
A|-5-5-5-5-5-5-5-5-5-5-5-5-7-7-7-7|-5-5-5-5-5-5-5-5-5-5-5-5-7-7-7-7|
E|-3-3-3-3-3-3-2-2-2-2-2-2-5-5-5-5|-------------7-7-7-7-7-7-5-5-5-5|

E|--------------------------------|--------------------------------|
B|--------------------------------|--------------------------------|
G|--------------------------------|-7-7-7-7------------------------|
D|-5-5-5-5-5-5-4-4-4-4-4-4-7-7-7-7|-7-7-7-7-----7-7-7-7-----7-7-7-7|
A|-5-5-5-5-5-5-5-5-5-5-5-5-7-7-7-7|-5-5-5-5-----5-5-5-5-----7-7-7-7|
E|-3-3-3-3-3-3-2-2-2-2-2-2-5-5-5-5|-------------7-7-7-7-----5-5-5-5|

E|--------------------------------|
B|--------------------------------|
G|--------------------------------|
D|-5------------------------------|
A|-5------------------------------|
E|-3------------------------------|



Guitar 2
Intro
E|--------------------------------|--------------------------------|
B|--------------------------------|--------------------------------|
G|-7--7--7--9--11--1111--119---7--|-7-7---7-9---7---7-7---6-6-6-6--|
D|-x--x--x--x--x---x-x---x-x---x--|-x-x---x-x---x---x-x---x-x-x-x--|
A|-5--5--5--7--9---9-9---9-7---5--|-5-5---5-7---5---5-5---4-4-4-4--|
E|--------------------------------|--------------------------------|

E|--------------------------------|--------------------------------|
B|--------------------------------|--------------------------------|
G|-7--7--7--9--11--1111--119---14-|-1111--1111--9---7-7---7-7-7-7--|
D|-x--x--x--x--x---x-x---x-x---x--|-x-x---x-x---x---x-x---x-x-x-x--|
A|-5--5--5--7--9---9-9---9-7---12-|-9-9---9-9---7---5-5---5-5-5-5--|
E|--------------------------------|--------------------------------|

Verse 1
E|--------------------------------|--------------------------------|
B|--------------------------------|--------------------------------|
G|-7--7--7--9--11--1111--119---7--|-7-7---7-9---7---7-7---6-6-6-6--|
D|-x--x--x--x--x---x-x---x-x---x--|-x-x---x-x---x---x-x---x-x-x-x--|
A|-5--5--5--7--9---9-9---9-7---5--|-5-5---5-7---5---5-5---4-4-4-4--|
E|--------------------------------|--------------------------------|

E|--------------------------------|--------------------------------|
B|--------------------------------|--------------------------------|
G|-7--7--7--9--11--1111--119---14-|-1111--1111--9---7-7---7-7-7-7--|
D|-x--x--x--x--x---x-x---x-x---x--|-x-x---x-x---x---x-x---x-x-x-x--|
A|-5--5--5--7--9---9-9---9-7---12-|-9-9---9-9---7---5-5---5-5-5-5--|
E|--------------------------------|--------------------------------|

E|--------------------------------|
B|--------------------------------|
G|---------2---------------2------|
D|---0-2-4---4-2-0---0-2-4---4-2-0|
A|-0---------------0--------------|
E|--------------------------------|

Chorus
E|--------------------------------|---------------------------------|
B|--------------------------------|---------------------------------|
G|-7-7---14-111111-1111--9---7-7-7|-7-7---14-111111-1111--9---111111|
D|-x-x---x--x-x-x--x-x---x---x-x-x|-x-x---x--x-x-x--x-x---x---x-x-x-|
A|-5-5---12-9-9-9--9-9---7---5-5-5|-5-5---12-9-9-9--9-9---7---9-9-9-|
E|--------------------------------|---------------------------------|

E|--------------------------------|---------------------------------|
B|--------------------------------|---------------------------------|
G|-7-7---14-111111-1111--9---7-7-7|-1111--11-111111-1111--9---111111|
D|-x-x---x--x-x-x--x-x---x---x-x-x|-x-x---x--x-x-x--x-x---x---x-x-x-|
A|-5-5---12-9-9-9--9-9---7---5-5-5|-9-9---9--9-9-9--9-9---7---9-9-9-|
E|--------------------------------|---------------------------------|

Post-chorus (note elongated bars – same time signature as normal)
E|-----------------------------------------------------------------|
B|-----------------------------------------------------------------|
G|-14--11--11-------11--14--16--14--14--11--11-------11--11--11--11|
D|-0---0---0--------0---0---0---0---0---0---0--------0---0---0---0-| x2
A|-----------------------------------------------------------------|
E|-----------------------------------------------------------------|

Verse 2
E|-----------------------------------------------------------------|
B|-----------------------------------------------------------------|
G|-14--11--11-------11--14--16--14--14--11--11-------11--11--11--11|
D|-0---0---0--------0---0---0---0---0---0---0--------0---0---0---0-| x6
A|-----------------------------------------------------------------|
E|-----------------------------------------------------------------|

E|--------------------------------|--------------------------------|
B|--------------------------------|--------------------------------|
G|7-7-7-7-----9-9-9-9-----11111111|11111111----12121212----14141414|
D|x-x-x-x-----x-x-x-x-----x-x-x-x-|x-x-x-x-----x-x-x-x-----x-x-x-x-| x2
A|5-5-5-5-----7-7-7-7-----9-9-9-9-|9-9-9-9-----10101010----12121212|
E|--------------------------------|--------------------------------|

Chorus
E|--------------------------------|---------------------------------|
B|--------------------------------|---------------------------------|
G|-7-7---14-111111-1111--9---7-7-7|-7-7---14-111111-1111--9---111111|
D|-x-x---x--x-x-x--x-x---x---x-x-x|-x-x---x--x-x-x--x-x---x---x-x-x-|
A|-5-5---12-9-9-9--9-9---7---5-5-5|-5-5---12-9-9-9--9-9---7---9-9-9-|
E|--------------------------------|---------------------------------|

E|--------------------------------|---------------------------------|
B|--------------------------------|---------------------------------|
G|-7-7---14-111111-1111--9---7-7-7|-1111--11-111111-1111--9---111111| All
D|-x-x---x--x-x-x--x-x---x---x-x-x|-x-x---x--x-x-x--x-x---x---x-x-x-| x2
A|-5-5---12-9-9-9--9-9---7---5-5-5|-9-9---9--9-9-9--9-9---7---9-9-9-|
E|--------------------------------|---------------------------------|

Post-chorus
E|--------------------------------|--------------------------------|
B|--------------------------------|--------------------------------|
G|-7------------------------------|--------------------------------|
D|-x------------------------------|--------------------/5---4------|
A|-5------------------------------|-----------------------------5--|
E|--------------------------------|--------------------------------|

Bridge
E|--------------------------------|--------------------------------|
B|--------------------------------|--------------------------------|
G|--------------------------------|--------------------------------|
D|--------------------------------|--------------------------------| x2
A|--------------------------------|--------------------------------|
E|--------------------------------|--------------------------------|

E|---10--10--10--10--5---5---2---2|---10--10--10--10--5---5---2---2|
B|-10--10--10--10--7---7---3---3--|-10--10--10--10--7---7---3---3--|
G|--------------------------------|--------------------------------|
D|--------------------------------|--------------------------------| x3
A|--------------------------------|--------------------------------|
E|--------------------------------|--------------------------------|

E|---10--10--10--10--5---5---2---2|---10--10--10--10--5---5--------|
B|-10--10--10--10--7---7---3---3--|-10--10--10--10--7---7----------|
G|--------------------------------|--------------------------------|
D|--------------------------------|--------------------------------|
A|--------------------------------|--------------------------------|
E|--------------------------------|--------------------------------|

Chorus
E|---10--10--10--10--5---5---2---2|---10--10--10--10--5---5---2---2|
B|-10--10--10--10--7---7---3---3--|-10--10--10--10--7---7---3---3--|
G|--------------------------------|--------------------------------|
D|--------------------------------|--------------------------------| x3
A|--------------------------------|--------------------------------|
E|--------------------------------|--------------------------------|

E|---10--10--10--10--5---5---2---2|-10101010----5-5-5-5-----2-2-2-2|
B|-10--10--10--10--7---7---3---3--|-10101010----7-7-7-7-----3-3-3-3|
G|--------------------------------|--------------------------------|
D|--------------------------------|--------------------------------|
A|--------------------------------|--------------------------------|
E|--------------------------------|--------------------------------|

E|-2------------------------------|
B|-3------------------------------|
G|-2------------------------------|
D|-0------------------------------|
A|--------------------------------|
E|--------------------------------|
comments
print report bad tab
I want to post or [tab]
guest
You may want to rate the tab now too:
select rating
Please do not post tabs as comments. Select "correction" instead!