Oops, an error
Loading. Please wait.

Roam Bass Tab

1,017 views 48 this week
2 commentsread comments
1 2 3 4 5
accurate
x 3
add to favorites launch autoscroll
font size
0
reset
Autoscroll
+/-
esc
set tempo
stop
Contributor
Difficulty
WARNING: You are trying to view
                                    content from Ultimate-Guitar.com
                                    in an unauthorized application,
                                    which is prohibited.

                                    Please use an official Ultimate
                                    Guitar Tabs application for iPhone,
                                    iPad or Android to access legitimate
                                    chords, guitar, bass, and drum tabs
                                    from Ultimate-Guitar.com database.

                                    Type "ultimate guitar tabs" in Apple
                                    App Store's or Android Market's
                                    search to find the application.
Intro/Chorus
E|----------------------------------|
B|----------------------------------|
G|----------------------------------|
D|----------------------------------|
A|----------------------------------|
E|--0-0-0-0-0-07--5-5-5-5-55-5-5-55-|


End of Intro
E|------------------------|
B|------------------------|
G|------------------------|
D|------------------------|
A|------------------------|
E|--2--2-2--2--2-2--2-5---|



Verse

E|---------------------------------------------------|
B|---------------------------------------------------|
G|------------------------------------------(2)-(1)--|
D|---------------------------------------------------| x1
A|--0--0--0-0---0---4--4--4-4---2--2--2-2--(2)-------|
E|-------------0-------------------------------------|



E|-------------------------------------------(2)-(1)--|
B|----------------------------------------------------|
G|----------------------------------------------------|
D|---------------7------------------------------------| x3
A|--0--0--0-0--7-----4--4--4-4--2--2--2-2--(2)--------|
E|----------------------------------------------------|


Pre-Chorus
E|----------------------------------------|
B|----------------------------------------|
G|----------------------------------------|
D|----------------------------------------|
A|--0~-----0---0---0----------------------|
E|--------------------5-5-5-5-5-5-5-5-5---|


Chorus (Same as intro with slight variations, figure it out yourself)

E|----------------------------------|
B|----------------------------------|
G|----------------------------------|
D|----------------------------------|
A|----------------------------------|
E|--0-0-0-0-0-07--5-5-5-5-55-5-5-55-|



Verse 2

E|-------------------------------------------(2)-(1)--|
B|----------------------------------------------------|
G|----------------------------------------------------|
D|---------------7------------------------------------| x2
A|--0--0--0-0--7-----4--4--4-4--2--2--2-2--(2)--------|
E|----------------------------------------------------|

Kelen then goes off into this little fill, it's not 100% correct but it's kinda close.
E|-------------------------------------------|
B|-------------------------------------------|
G|-----------9--------------------9----------|
D|-------6-7----7-6-----------6-7----7-6-----|
A|--7~--7-----------9---7~--7------------9---|
E|-------------------------------------------|


Bridge
E|---------------------------------------------|
B|---------------------------------------------|
G|---------------------------------------------|
D|---------------------------------------------|
A|---------------------------------------------|
E|--5----5----5----5----0----0----9-9-9-7-7-7--|
                                   (Triplet feel)

Chorus is then repeated a few times, and that's it.
comments
We did not receive enough feedback on this tab! Please rate:
1 2 3 4 5
2 comments total.
0 reply
Codyis0nline wrote on March 9 2014, 08:36 pm

why are there six strings?

0 reply
CriminalCypress wrote on April 1 2014, 02:36 pm

yeah there should only be four strings, forgot to cut out the bottom two. Also,
E|-------------------------------------------(2)-(1)--|
B|----------------------------------------------------|
G|----------------------------------------------------|
D|---------------7------------------------------------| x2
A|--0--0--0-0--7-----4--4--4-4--2--2--2-2--(2)--------|
E|----------------------------------------------------|

should be:
G|--------------------------------------------(2)-(1)-|
D|---------------7------------------------------------| x2
A|--0--0--0-0--7-----4--4--4-4--2--2--2-2--(2)--------|
E|----------------------------------------------------|

I want to post or [tab]
guest
You may want to rate the tab now too:
select rating
Please do not post tabs as comments. Select "correction" instead!