Oops, an error
Loading. Please wait.

Young For Eternity Tab

ver1
ver1

Album

Whole song

More versions @911Tabs.com
4,666 views 9 this week
5 commentsread comments
1 2 3 4 5
accurate
x 9
Autoscroll
+/-
esc
set tempo
stop
Contributor
Hey! There's an official Ultimate Guitar app which is ideal
for learning songs when you're away from computer. Get the app
WARNING: You are trying to view
                                    content from Ultimate-Guitar.com
                                    in an unauthorized application,
                                    which is prohibited.

                                    Please use an official Ultimate
                                    Guitar Tabs application for iPhone,
                                    iPad or Android to access legitimate
                                    chords, guitar, bass, and drum tabs
                                    from Ultimate-Guitar.com database.

                                    Type "ultimate guitar tabs" in Apple
                                    App Store's or Android Market's
                                    search to find the application.
=======================================================================

The Subways - Young For Eternity 

Tabbed By James Morris

Track List: 
I.	I Want To Hear What You Have Got To Say
II.	Holiday
III.	Rock And Roll Queen
IV.	Mary
V.	Young For Eternity
VI.	Lines Of Light
VII.	Oh Yeah
VIII.	City Pavement
IX.	No Goodbye's
X.	With You
XI.	She Sun
XII.	Somewhere
XIII.	At 1AM


- - - - - - - - - - - - - - - - - - - - - - - - - - - - - - - - - - - - 

Track #1

Artist: The Subways
Song: I Want To Hear What You Have Got To Say
Album: Young For Eternity
Tuning: Flats - Eb Ab Db Gb Bb Eb 
Tabbed By James Morris

Intro
Guitar 1 (Clean Electric)
Eb|-----------------------------------------------|
Bb|---6--6-6-6---6--6-6-6---6--6-6-6-/10-10-10-10-|
Gb|---7--7-7-7---7--7-7-7---7--7-7-7-/10-10-10-10-|
Db|---7--7-7-7---7--7-7-7---7--7-7-7-/10-10-10-10-|
Ab|-5-5--5-5-5-5-5--5-5-5-5-5--5-5-5-/-8--8--8--8-|
Eb|-----------------------------------------------|
   'Another day is here and I am still alive'
'I say these words aloud they speak from the inside'
Eb|-----------------------------------------------|
Bb|---6--6-6-6---6--6-6-6---5--5-5-5-/10-10-10-10-|
Gb|---7--7-7-7---5--5-5-5---5--5-5-5-/10-10-10-10-|
Db|---7--7-7-7---7--7-7-7---7--7-7-7-/10-10-10-10-|
Ab|-5-5--5-5-5-5-5--5-5-5-5-5--5-5-5-/-8--8--8--8-|
Eb|-----------------------------------------------|
    'Everytime I see you, you just walk away'  
Eb|---1--1-1-1-1---1-1-1-1/---3--3-3-3-3----3-3---|
Bb|---2--2-2-2-2---2-2-2-2/-4-4--4-4-4-4----4-4---|
Gb|-3-3--3-3-3-3-3-3-3-3-3/-5-5--5-5-5-5-5--5-5---|
Db|-3-3--3-3-3-3-3-3---3-3/-5-5--5-5-5-5-5--5-5---|
Ab|-1-1--1-1-1-1-1-----1-1/-3-3--3-3-3-3-3--3-3---|
Eb|-----------------------------------------------|

Eb|-----------------------------------------------|
Bb|---6--6-6-6---6--6-6-6---6--6-6-6-/10-10-10-10-|
Gb|---7--7-7-7---7--7-7-7---7--7-7-7-/10-10-10-10-|
Db|---7--7-7-7---7--7-7-7---7--7-7-7-/10-10-10-10-|
Ab|-5-5--5-5-5-5-5--5-5-5-5-5--5-5-5-/-8--8--8--8-|
Eb|-----------------------------------------------|

Guitar 2 (Electric)
Eb|-------------------------------------|
Bb|-------6---------6-------10----------|
Gb|---7-----7---7-----7---7----10----10-|
Db|-----7-----7---7-----7---------10----|
Ab|-5-----------------------------------|
Eb|-------------------------------------|

Guitar 1 (Electric)
           'Still The World Is Turning'
Eb|---1--1-1-1-1---1-1-1-1/---3--3-3-3-3----3-3---|
Bb|---2--2-2-2-2---2-2-2-2/-4-4--4-4-4-4----4-4---|
Gb|-3-3--3-3-3-3-3-3-3-3-3/-5-5--5-5-5-5-5--5-5---|
Db|-3-3--3-3-3-3-3-3---3-3/-5-5--5-5-5-5-5--5-5---|
Ab|-1-1--1-1-1-1-1-----1-1/-3-3--3-3-3-3-3--3-3---|
Eb|-----------------------------------------------|

'I Want to hear what you, what you've got to say'
Eb|-----------------------/---1--1-1-1-1----1-1---|
Bb|---1--1-1-1-1---1-1-1-1/-1-1--1-1-1-1----1-1---|
Gb|-2-2--2-2-2-2-2-2-2-2-2/-2-2--2-2-2-2----2-2---| x3
Db|-2-2--2-2-2-2-2-2---2-2/-3-3--3-3-3-3-3--3-3---|
Ab|-0-0--0-0-0-0-0-----0-0/-----------------------|
Eb|-----------------------------------------------|

       'Say,   hey,  hey,  hey,    hey,    uh'   
Eb|---1--1-1-1-1---1-1-1-1/---3--3-3-3-3----3-3---|
Bb|---2--2-2-2-2---2-2-2-2/-4-4--4-4-4-4----4-4---|
Gb|-3-3--3-3-3-3-3-3-3-3-3/-5-5--5-5-5-5-5--5-5---|
Db|-3-3--3-3-3-3-3-3---3-3/-5-5--5-5-5-5-5--5-5---|
Ab|-1-1--1-1-1-1-1-----1-1/-3-3--3-3-3-3-3--3-3---|
Eb|-----------------------------------------------|

Verse 
Guitar 1 (Electric)

Eb|-------------------------------------------|
Bb|-6--6-6-6--6--6-6-6--6--6-6-6-/10-10-10-x--|
Gb|-7--7-7-7--7--7-7-7--7--7-7-7-/10-10-10-x--|
Db|-7--7-7-7--7--7-7-7--7--7-7-7-/10-10-10-x--|
Ab|-5--5-5-5--5--5-5-5--5--5-5-5-/-8--8--8-x--|
Eb|-------------------------------------------|

Eb|-------------------------------------------|
Bb|-6--6-6-6--6--6-6-6--6--6-6-6-/10-10-10-x--|
Gb|-7--7-7-7--7--7-7-7--7--7-7-7-/10-10-10-x--|
Db|-7--7-7-7--7--7-7-7--7--7-7-7-/10-10-10-x--|
Ab|-5--5-5-5--5--5-5-5--5--5-5-5-/-8--8--8-x--|
Eb|-------------------------------------------|

  'My mind is all made up I'm doing all I can'
'I'm trying hard to think but I can't understand'
Eb|-------------------------------------------|
Bb|-6--6-6-6--6--6-6-6--6--6-6-6-/10-10-10-10-|
Gb|-7--7-7-7--7--7-7-7--7--7-7-7-/10-10-10-10-|
Db|-7--7-7-7--7--7-7-7--7--7-7-7-/10-10-10-10-|
Ab|-5--5-5-5--5--5-5-5--5--5-5-5-/-8--8--8--8-|
Eb|-------------------------------------------|
 
  'Why everytime I see you, you just walk away'
 'Still the world is turning, I will not complain'
Eb|---1--1-1-1-1---1-1-1-1/---3--3-3-3-3----3-3---|
Bb|---2--2-2-2-2---2-2-2-2/-4-4--4-4-4-4----4-4---|
Gb|-3-3--3-3-3-3-3-3-3-3-3/-5-5--5-5-5-5-5--5-5---|
Db|-3-3--3-3-3-3-3-3---3-3/-5-5--5-5-5-5-5--5-5---|
Ab|-1-1--1-1-1-1-1-----1-1/-3-3--3-3-3-3-3--3-3---|
Eb|-----------------------------------------------|

Fast Strumming-Distortion
Eb|-------------------------------------------------|
Bb|-6-6-6-6-6-6-6-6-6-6-6-6-6-6-6-6-6-6-6-6-6-6-6-6-|
Gb|-7-7-7-7-7-7-7-7-7-7-7-7-7-7-7-7-7-7-7-7-7-7-7-7-|
Db|-7-7-7-7-7-7-7-7-7-7-7-7-7-7-7-7-7-7-7-7-7-7-7-7-|
Ab|-5-5-5-5-5-5-5-5-5-5-5-5-5-5-5-5-5-5-5-5-5-5-5-5-|
Eb|-------------------------------------------------|

Eb|-------------------------|
Bb|-10-10-10-10-10-10-10-10-|
Gb|-10-10-10-10-10-10-10-10-|
Db|-10-10-10-10-10-10-10-10-|
Ab|--8--8--8--8--8--8--8--8-|
Eb|-------------------------|

Guitar 2
Eb|----5----5----5----5----5----5---10---10-|
Bb|----6----6----6----6----6----6---10---10-|
Gb|----7----7----7----7----7----7---10---10-|
Db|----7----7----7----7----7----7---10---10-|
Ab|----5----5----5----5----5----5----8----8-|
Eb|-----------------------------------------|

Bridge
Guitar 1
Eb|-------------------------------------------|
Bb|-6--6-6-6--6--6-6-6--6--6-6-6-/10-10-10-x--|
Gb|-7--7-7-7--7--7-7-7--7--7-7-7-/10-10-10-x--|
Db|-7--7-7-7--7--7-7-7--7--7-7-7-/10-10-10-x--|
Ab|-5--5-5-5--5--5-5-5--5--5-5-5-/-8--8--8-x--|
Eb|-------------------------------------------|

Guitar 2 (Not too sure about this part)
Eb|-10-10-10-x-8-10-10-10-x-8-10-10-10-x-8----------|
Bb|----------------------------------------10-10-10-|
Gb|-------------------------------------------------|
Db|-------------------------------------------------|
Ab|-------------------------------------------------|
Eb|-------------------------------------------------|

Verse
Guitar 1
'My head is spinnin' round, I don't know what to do'
'If I'm so happy I've got everything to lose'
Eb|-------------------------------------------|
Bb|-6--6-6-6--6--6-6-6--6--6-6-6-/10-10-10-x--|
Gb|-7--7-7-7--7--7-7-7--7--7-7-7-/10-10-10-x--|
Db|-7--7-7-7--7--7-7-7--7--7-7-7-/10-10-10-x--|
Ab|-5--5-5-5--5--5-5-5--5--5-5-5-/-8--8--8-x--|
Eb|-------------------------------------------|

 'And Every Time I See You, I can't stand to stay'
Eb|---1--1-1-1-1---1-1-1-1/---3--3-3-3-3----3-3---|
Bb|---2--2-2-2-2---2-2-2-2/-4-4--4-4-4-4----4-4---|
Gb|-3-3--3-3-3-3-3-3-3-3-3/-5-5--5-5-5-5-5--5-5---|
Db|-3-3--3-3-3-3-3-3---3-3/-5-5--5-5-5-5-5--5-5---|
Ab|-1-1--1-1-1-1-1-----1-1/-3-3--3-3-3-3-3--3-3---|
Eb|-----------------------------------------------|

Eb|-------------------------------------------|
Bb|-6--6-6-6--6--6-6-6--6--6-6-6-/10-10-10-x--|
Gb|-7--7-7-7--7--7-7-7--7--7-7-7-/10-10-10-x--|
Db|-7--7-7-7--7--7-7-7--7--7-7-7-/10-10-10-x--|
Ab|-5--5-5-5--5--5-5-5--5--5-5-5-/-8--8--8-x--|
Eb|-------------------------------------------|
'And now it's always raining, and you're the one to blame'
Eb|---1--1-1-1-1---1-1-1-1/---3--3-3-3-3----3-3---|
Bb|---2--2-2-2-2---2-2-2-2/-4-4--4-4-4-4----4-4---|
Gb|-3-3--3-3-3-3-3-3-3-3-3/-5-5--5-5-5-5-5--5-5---|
Db|-3-3--3-3-3-3-3-3---3-3/-5-5--5-5-5-5-5--5-5---|
Ab|-1-1--1-1-1-1-1-----1-1/-3-3--3-3-3-3-3--3-3---|
Eb|-----------------------------------------------|
'And everytime I see you, you just walk away-----
Eb|---1--1-1-1-1---1-1-1-1/---3--3-3-3-3----3-3---|
Bb|---2--2-2-2-2---2-2-2-2/-4-4--4-4-4-4----4-4---|
Gb|-3-3--3-3-3-3-3-3-3-3-3/-5-5--5-5-5-5-5--5-5---|
Db|-3-3--3-3-3-3-3-3---3-3/-5-5--5-5-5-5-5--5-5---|
Ab|-1-1--1-1-1-1-1-----1-1/-3-3--3-3-3-3-3--3-3---|
Eb|-----------------------------------------------|
  Ay    ay      ay      ay
Eb|-------------------------------------------|
Bb|-6--6-6-6--6--6-6-6--6--6-6-6-/10-10-10-x--|
Gb|-7--7-7-7--7--7-7-7--7--7-7-7-/10-10-10-x--|
Db|-7--7-7-7--7--7-7-7--7--7-7-7-/10-10-10-x--|
Ab|-5--5-5-5--5--5-5-5--5--5-5-5-/-8--8--8-x--|
Eb|-------------------------------------------|
        'Still The World Is Turning'
Eb|---1--1-1-1-1---1-1-1-1/---3--3-3-3-3----3-3---|
Bb|---2--2-2-2-2---2-2-2-2/-4-4--4-4-4-4----4-4---|
Gb|-3-3--3-3-3-3-3-3-3-3-3/-5-5--5-5-5-5-5--5-5---|
Db|-3-3--3-3-3-3-3-3---3-3/-5-5--5-5-5-5-5--5-5---|
Ab|-1-1--1-1-1-1-1-----1-1/-3-3--3-3-3-3-3--3-3---|
Eb|-----------------------------------------------|

'I Want to hear what you, what you've got to say'
Eb|-----------------------/---1--1-1-1-1----1-1---|
Bb|---1--1-1-1-1---1-1-1-1/-1-1--1-1-1-1----1-1---|
Gb|-2-2--2-2-2-2-2-2-2-2-2/-2-2--2-2-2-2----2-2---| x4
Db|-2-2--2-2-2-2-2-2---2-2/-3-3--3-3-3-3-3--3-3---|
Ab|-0-0--0-0-0-0-0-----0-0/-----------------------|
Eb|-----------------------------------------------|

Outro
Guitar 1
Eb|-------------------------------------------|
Bb|-6--6-6-6--6--6-6-6--6--6-6-6-/10-10-10-10-|
Gb|-7--7-7-7--7--7-7-7--7--7-7-7-/10-10-10-10-|
Db|-7--7-7-7--7--7-7-7--7--7-7-7-/10-10-10-10-|
Ab|-5--5-5-5--5--5-5-5--5--5-5-5-/-8--8--8--8-|
Eb|-------------------------------------------|

Eb|-------------------------------------------|
Bb|-6--6-6-6--6--6-6-6--6--6-6-6-/10-10-10-10-|
Gb|-7--7-7-7--7--7-7-7--7--7-7-7-/10-10-10-10-|
Db|-7--7-7-7--7--7-7-7--7--7-7-7-/10-10-10-10-|
Ab|-5--5-5-5--5--5-5-5--5--5-5-5-/-8--8--8--8-|
Eb|-------------------------------------------|

End On
Eb|---|
Bb|-6-|
Gb|-7-|
Db|-7-|
Ab|-5-|
Eb|---|

End.

- - - - - - - - - - - - - - - - - - - - - - - - - - - - - - - - - - - - 

Track #2

Artist: The Subways
Song: Holiday
Album: Young For Eternity
Tuning: Flats - Eb Ab Db Gb Bb Eb
Tabbed By James Morris

Intro
Eb|-------------------------------------------------------------|
Bb|-------------------------------------------------------------|
Gb|----------------------------------------------/1010101010~~~-|
Db|-7-7-7-6-5--5-x-7-7-7-6-5---5-x-7-7-7-6-5---5-/1010101010~~~-|
Ab|-7-7-7-6-5--5-x-7-7-7-6-5---5-x-7-7-7-6-5---5-/-8-8-8-8-8~~~-|
Eb|-5-5-5-4-3--3-x-5-5-5-4-3---3-x-5-5-5-4-3---3----------------|

Main Riff
Eb|---------------------------------------------------------------|
Bb|---------------------------------------------------------------|
Gb|----------------------------------------------/10101010101010~-|
Db|-7-7-7-6-5--5-x-7-7-7-6-5---5-x-7-7-7-6-5---5-/10101010101010~-|
Ab|-7-7-7-6-5--5-x-7-7-7-6-5---5-x-7-7-7-6-5---5-/-8-8-8-8-8-8-8~-|
Eb|-5-5-5-4-3--3-x-5-5-5-4-3---3-x-5-5-5-4-3---3------------------|

Verse
Eb|---------------------------------------------------------------|
Bb|---------------------------------------------------------------|
Gb|----------------------------------------------/10101010101010~-|
Db|-7-7-7-6-5--5-x-7-7-7-6-5---5-x-7-7-7-6-5---5-/10101010101010~-| x2
Ab|-7-7-7-6-5--5-x-7-7-7-6-5---5-x-7-7-7-6-5---5-/-8-8-8-8-8-8-8~-|
Eb|-5-5-5-4-3--3-x-5-5-5-4-3---3-x-5-5-5-4-3---3------------------|

Chorus
Eb|-----------------------------------------------------------------|
Bb|-----------------------------------------------------------------|
Gb|-7-7-7-7-7-7-7-7-7-7-7-7-7-7-7-7---------------------------------|
Db|-7-7-7-7-7-7-7-7-7-7-7-7-7-7-7-7-9-9-9-9-9-9-9-9-9-9-9-9-9-9-9-9-|x4
Ab|-5-5-5-5-5-5-5-5-5-5-5-5-5-5-5-5-9-9-9-9-9-9-9-9-9-9-9-9-9-9-9-9-|
Eb|---------------------------------7-7-7-7-7-7-7-7-7-7-7-7-7-7-7-7-|

Eb|---------------------------------|
Bb|---------------------------------|
Gb|---------------------------------|
Db|-8-8-8-8-8-8-8-8-8-8-8-8-8-8-8-8-|
Ab|-8-8-8-8-8-8-8-8-8-8-8-8-8-8-8-8-|
Eb|-6-6-6-6-6-6-6-6-6-6-6-6-6-6-6-6-|

Main Riff
Eb|---------------------------------------------------------------|
Bb|---------------------------------------------------------------|
Gb|----------------------------------------------/10101010101010~-|
Db|-7-7-7-6-5--5-x-7-7-7-6-5---5-x-7-7-7-6-5---5-/10101010101010~-|
Ab|-7-7-7-6-5--5-x-7-7-7-6-5---5-x-7-7-7-6-5---5-/-8-8-8-8-8-8-8~-|
Eb|-5-5-5-4-3--3-x-5-5-5-4-3---3-x-5-5-5-4-3---3------------------|

Verse
Eb|---------------------------------------------------------------|
Bb|---------------------------------------------------------------|
Gb|----------------------------------------------/10101010101010~-|
Db|-7-7-7-6-5--5-x-7-7-7-6-5---5-x-7-7-7-6-5---5-/10101010101010~-| x2
Ab|-7-7-7-6-5--5-x-7-7-7-6-5---5-x-7-7-7-6-5---5-/-8-8-8-8-8-8-8~-|
Eb|-5-5-5-4-3--3-x-5-5-5-4-3---3-x-5-5-5-4-3---3------------------|

Chorus
Eb|-----------------------------------------------------------------|
Bb|-----------------------------------------------------------------|
Gb|-7-7-7-7-7-7-7-7-7-7-7-7-7-7-7-7---------------------------------|
Db|-7-7-7-7-7-7-7-7-7-7-7-7-7-7-7-7-9-9-9-9-9-9-9-9-9-9-9-9-9-9-9-9-|x4
Ab|-5-5-5-5-5-5-5-5-5-5-5-5-5-5-5-5-9-9-9-9-9-9-9-9-9-9-9-9-9-9-9-9-|
Eb|---------------------------------7-7-7-7-7-7-7-7-7-7-7-7-7-7-7-7-|

Eb|---------------------------------|
Bb|---------------------------------|
Gb|---------------------------------|
Db|-8-8-8-8-8-8-8-8-8-8-8-8-8-8-8-8-|
Ab|-8-8-8-8-8-8-8-8-8-8-8-8-8-8-8-8-|
Eb|-6-6-6-6-6-6-6-6-6-6-6-6-6-6-6-6-|

Bridge 
Eb|-------------------------------------------------------------|
Bb|-------------------------------------------------------------|
Gb|----------------------------------------------/1010101010~~~-|
Db|-7-7-7-6-5--5-x-7-7-7-6-5---5-x-7-7-7-6-5---5-/1010101010~~~-|
Ab|-7-7-7-6-5--5-x-7-7-7-6-5---5-x-7-7-7-6-5---5-/-8-8-8-8-8~~~-|
Eb|-5-5-5-4-3--3-x-5-5-5-4-3---3-x-5-5-5-4-3---3----------------|

Outro
Eb|---------------------------------------------------------------|
Bb|---------------------------------------------------------------|
Gb|----------------------------------------------/10101010101010~-|
Db|-7-7-7-6-5--5-x-7-7-7-6-5---5-x-7-7-7-6-5---5-/10101010101010~-| x2
Ab|-7-7-7-6-5--5-x-7-7-7-6-5---5-x-7-7-7-6-5---5-/-8-8-8-8-8-8-8~-|
Eb|-5-5-5-4-3--3-x-5-5-5-4-3---3-x-5-5-5-4-3---3------------------|

End On
Eb|------|
Bb|------|
Gb|------|
Db|-7///-|
Ab|-7///-|
Eb|-5///-|

End.

- - - - - - - - - - - - - - - - - - - - - - - - - - - - - - - - - - - -

Track #3

Artist: The Subways
Song: Rock And Roll Queen
Album: Young For Eternity
Tuning: Flats- Eb Ab Db Gb Bb Eb
Tabbed By James Morris

Intro 
PM -----------------------------------------------------------------
Eb|-----------------------------------------------------------------|
Bb|-----------------------------------------------------------------|
Gb|-4-4-4-4-4-4-4-4-4-4-4-4-4-4-4-4-4-4-4-4-4-4-4-4-4-4-4-4-4-4-4-4-|
Db|-4-4-4-4-4-4-4-4-4-4-4-4-4-4-4-4-4-4-4-4-4-4-4-4-4-4-4-4-4-4-4-4-|
Ab|-2-2-2-2-2-2-2-2-2-2-2-2-2-2-2-2-2-2-2-2-2-2-2-2-2-2-2-2-2-2-2-2-|
Eb|-----------------------------------------------------------------|
    
     'You are,       the sun,         you are the only one,
PM -----------------------------------------------------------------
Eb|-----------------------------------------------------------------|
Bb|-----------------------------------------------------------------|
Gb|-4-4-4-4-4-4-4-4-4-4-4-4-4-4-4-4-4-4-4-4-4-4-4-4-4-4-4-4-4-4-4-4-|
Db|-4-4-4-4-4-4-4-4-4-4-4-4-4-4-4-4-4-4-4-4-4-4-4-4-4-4-4-4-4-4-4-4-|
Ab|-2-2-2-2-2-2-2-2-2-2-2-2-2-2-2-2-2-2-2-2-2-2-2-2-2-2-2-2-2-2-2-2-|
Eb|-----------------------------------------------------------------|

    My heart is blue,         my heart is blue for you'
PM --------------------------------------
Eb|-----------------------------------------------------------------|
Bb|-----------------------------------------------------------------|
Gb|-4-4-4-4-4-4-4-4-4-4-4-4-4-4-4-4-4-4-4-4-4-4-4-4-4-4-4-4-4-4-4-4-|
Db|-4-4-4-4-4-4-4-4-4-4-4-4-4-4-4-4-4-4-4-4-4-4-4-4-4-4-4-4-4-4-4-4-|
Ab|-2-2-2-2-2-2-2-2-2-2-2-2-2-2-2-2-2-2-2-2-2-2-2-2-2-2-2-2-2-2-2-2-|
Eb|-----------------------------------------------------------------|

Chorus

Guitar
 'Be My,     Be My,    Be My Little Rock And Roll Queen'
Eb|-----------------------------------------------------|
Bb|-----------7-7~------4-4-4-4-4-4-4-4-4-4-4-4-4-4-4-4-|
Gb|-1-1~------7-7~------4-4-4-4-4-4-4-4-4-4-4-4-4-4-4-4-|
Db|-2-2~------7-7~------4-4-4-4-4-4-4-4-4-4-4-4-4-4-4-4-| x4
Ab|-2-2~------5-5~------2-2-2-0-2-2-2-0-2-2-0-2-2-2-2-0-|
Eb|-0-0~------------------------------------------------|

Bass
 'Be My,     Be My,    Be My Little Rock And Roll Queen'
Gb|-----------------------------------------------------|
Db|-----------------------------------------------------|
Ab|-7-7~------5-5~------2-2-2-0-2-2-2-0-2-2-0-2-2-2-2-0-| x4
Eb|-----------------------------------------------------|

Bridge
PM ------------------------------------------------------------------
Eb|-----------------------------------------------------------------|
Bb|-----------------------------------------------------------------|
Gb|-4-4-4-4-4-4-4-4-4-4-4-4-4-4-4-4-4-4-4-4-4-4-4-4-4-4-4-4-4-4-4-4-|
Db|-4-4-4-4-4-4-4-4-4-4-4-4-4-4-4-4-4-4-4-4-4-4-4-4-4-4-4-4-4-4-4-4-|
Ab|-2-2-2-2-2-2-2-2-2-2-2-2-2-2-2-2-2-2-2-2-2-2-2-2-2-2-2-2-2-2-2-2-|
Eb|-----------------------------------------------------------------|

Verse
     'You are,       the sun,         you are the only one,
PM -----------------------------------------------------------------
Eb|-----------------------------------------------------------------|
Bb|-----------------------------------------------------------------|
Gb|-4-4-4-4-4-4-4-4-4-4-4-4-4-4-4-4-4-4-4-4-4-4-4-4-4-4-4-4-4-4-4-4-|
Db|-4-4-4-4-4-4-4-4-4-4-4-4-4-4-4-4-4-4-4-4-4-4-4-4-4-4-4-4-4-4-4-4-|
Ab|-2-2-2-2-2-2-2-2-2-2-2-2-2-2-2-2-2-2-2-2-2-2-2-2-2-2-2-2-2-2-2-2-|
Eb|-----------------------------------------------------------------|

    You are,         so cool,        you are so rock and roll'
PM -------------------------------------------------
Eb|-----------------------------------------------------------------|
Bb|-----------------------------------------------------------------|
Gb|-4-4-4-4-4-4-4-4-4-4-4-4-4-4-4-4-4-4-4-4-4-4-4-4-4-4-4-4-4-4-4-4-|
Db|-4-4-4-4-4-4-4-4-4-4-4-4-4-4-4-4-4-4-4-4-4-4-4-4-4-4-4-4-4-4-4-4-|
Ab|-2-2-2-2-2-2-2-2-2-2-2-2-2-2-2-2-2-2-2-2-2-2-2-2-2-2-2-2-2-2-2-2-|
Eb|-----------------------------------------------------------------|

Guitar
 'Be My,     Be My,    Be My Little Rock And Roll Queen'
Eb|-----------------------------------------------------|
Bb|-----------7-7~------4-4-4-4-4-4-4-4-4-4-4-4-4-4-4-4-|
Gb|-1-1~------7-7~------4-4-4-4-4-4-4-4-4-4-4-4-4-4-4-4-|
Db|-2-2~------7-7~------4-4-4-4-4-4-4-4-4-4-4-4-4-4-4-4-| x4
Ab|-2-2~------5-5~------2-2-2-0-2-2-2-0-2-2-0-2-2-2-2---|
Eb|-0-0~------------------------------------------------|

Bass
 'Be My,     Be My,    Be My Little Rock And Roll Queen'
Gb|-----------------------------------------------------|
Db|-----------------------------------------------------|
Ab|-7-7~------5-5~------2-2-2-0-2-2-2-0-2-2-0-2-2-2-2-0-| x4
Eb|-----------------------------------------------------|

Bridge (Bass And Drums Stop)
Eb|-----------------------------------------------------------------|
Bb|-----------------------------------------------------------------|
Gb|-4-4-4-4-4-4-4-4-4-4-4-4-4-4-4-4-4-4-4-4-4-4-4-4-4-4-4-4-4-4-4-4-|
Db|-4-4-4-4-4-4-4-4-4-4-4-4-4-4-4-4-4-4-4-4-4-4-4-4-4-4-4-4-4-4-4-4-|
Ab|-2-2-2-2-2-2-2-2-2-2-2-2-2-2-2-2-2-2-2-2-2-2-2-2-2-2-2-2-2-2-2-2-|
Eb|-----------------------------------------------------------------|

Verse
     'You are,       the sun,         you are the only one,
Eb|-----------------------------------------------------------------|
Bb|-----------------------------------------------------------------|
Gb|-4-4-4-4-4-4-4-4-4-4-4-4-4-4-4-4-4-4-4-4-4-4-4-4-4-4-4-4-4-4-4-4-|
Db|-4-4-4-4-4-4-4-4-4-4-4-4-4-4-4-4-4-4-4-4-4-4-4-4-4-4-4-4-4-4-4-4-|
Ab|-2-2-2-2-2-2-2-2-2-2-2-2-2-2-2-2-2-2-2-2-2-2-2-2-2-2-2-2-2-2-2-2-|
Eb|-----------------------------------------------------------------|
                                                           
    You are,         so cool,        YOU ARE SO ROCK AND ROLL' 
Eb|-----------------------------------------------------------------|
Bb|-----------------------------------------------------------------|
Gb|-4-4-4-4-4-4-4-4-4-4-4-4-4-4-4-4-4-4-4-4-4-4-4-4-4-4-4-4-4-4-4-4-|
Db|-4-4-4-4-4-4-4-4-4-4-4-4-4-4-4-4-4-4-4-4-4-4-4-4-4-4-4-4-4-4-4-4-|
Ab|-2-2-2-2-2-2-2-2-2-2-2-2-2-2-2-2-2-2-2-2-2-2-2-2-2-2-2-2-2-2-2-2-|
Eb|-----------------------------------------------------------------|

  (Bass And Drums Join In - Feedback)
Eb|-----------------------------------------------------------------|
Bb|-----------------------------------------------------------------|
Gb|-4-4-4-4-4-4-4-4-4-4-4-4-4-4-4-4-4-4-4-4-4-4-4-4-4-4-4-4-4-4-4-4-|
Db|-4-4-4-4-4-4-4-4-4-4-4-4-4-4-4-4-4-4-4-4-4-4-4-4-4-4-4-4-4-4-4-4-|
Ab|-2-2-2-2-2-2-2-2-2-2-2-2-2-2-2-2-2-2-2-2-2-2-2-2-2-2-2-2-2-2-2-2-|
Eb|-----------------------------------------------------------------|
        (Very Faint Scream)'Ahhhhhhhhhhhhhhhhhhhhhhhhhhhhhhhhhhhhhh'
Eb|-----------------------------------------------------------------|
Bb|-----------------------------------------------------------------|
Gb|-4-4-4-4-4-4-4-4-4-4-4-4-4-4-4-4-4-4-4-4-4-4-4-4-4-4-4-4-4-4-4-4-|
Db|-4-4-4-4-4-4-4-4-4-4-4-4-4-4-4-4-4-4-4-4-4-4-4-4-4-4-4-4-4-4-4-4-|
Ab|-2-2-2-2-2-2-2-2-2-2-2-2-2-2-2-2-2-2-2-2-2-2-2-2-2-2-2-2-2-2-2-2-|
Eb|-----------------------------------------------------------------|

Guitar
 'Be My,     Be My,    Be My Little Rock And Roll Queen'
Eb|-----------------------------------------------------|
Bb|-----------7-7~------4-4-4-4-4-4-4-4-4-4-4-4-4-4-4-4-|
Gb|-1-1~------7-7~------4-4-4-4-4-4-4-4-4-4-4-4-4-4-4-4-|
Db|-2-2~------7-7~------4-4-4-4-4-4-4-4-4-4-4-4-4-4-4-4-| x4
Ab|-2-2~------5-5~------2-2-2-0-2-2-2-0-2-2-0-2-2-2-2-0-|
Eb|-0-0~------------------------------------------------|

Bass
 'Be My,     Be My,    Be My Little Rock And Roll Queen'
Gb|-----------------------------------------------------|
Db|-----------------------------------------------------|
Ab|-7-7~------5-5~------2-2-2-0-2-2-2-0-2-2-0-2-2-2-2-0-| x4
Eb|-----------------------------------------------------|

End On 

Guitar
Eb|-------------|
Bb|-------------|
Gb|-4~~~~~~~~~~-|
Db|-4~~~~~~~~~~-|
Ab|-2~~~~~~~~~~-|
Eb|-------------|

Bass
Gb|-------------|
Db|-------------|
Ab|-2~~~~/7~~---|
Eb|-------------|

End.

- - - - - - - - - - - - - - - - - - - - - - - - - - - - - - - - - - - -  

Track #4

Artist: The Subways
Song: Mary
Album: Young For Eternity
Tuning: Standard - E A D G B E
Tabbed By James Morris

For this song, I have tabbed the complete guitar 1 tab first, then
the complete guitar 2 tab after. 

==========================
Guitar 1 (Acoustic-Rhythm)

Intro (Not correct rhythm)
  C            Am
E|---0-----0-------|
B|-1-1-111-1-1-1-1-|
G|-0-0-000-0-0-2-2-|
D|-2-2-222-2-2-2-2-| x4
A|-3-3-333-3-3-0-0-|
E|-----------------|

Verse
  C            Am
E|---0-----0-------|
B|-1-1-111-1-1-1-1-|
G|-0-0-000-0-0-2-2-|
D|-2-2-222-2-2-2-2-| x4
A|-3-3-333-3-3-0-0-|
E|-----------------|

  Em
E|---0-----0-0-0---|
B|-0-0-000-0-0-0-0-|
G|-0-0-000-0-0-0-0-|
D|-2-2-222-2-2-2-2-| x2
A|-2-2-222-2-2-2-2-|
E|-0-0-000-0-0-0-0-|

  F
E|-1-1-111-1-1-1-1-|
B|-1-1-111-1-1-1-1-|
G|-2-2-222-2-2-2-2-|
D|-3-3-333-3-3-3-3-|
A|-----------------|
E|-----------------|

  Fm
E|-4-4-4-4-4~~~~~~~|
B|-6-6-6-6-6~~~~~~~|
G|-5-5-5-5-5~~~~~~~|
D|-3-3-3-3-3~~~~~~~|
A|-----------------|
E|-----------------|

Chorus 
  C                               Am
E|-0-0-0-0-0-0-0-0-0-0-0-0-0-0-0-0-0-0-0-0-0-0-0-0-0-0-0-0-0-0-0-0-|
B|-1-1-1-1-1-1-1-1-1-1-1-1-1-1-1-1-1-1-1-1-1-1-1-1-1-1-1-1-1-1-1-1-|
G|-0-0-0-0-0-0-0-0-0-0-0-0-0-0-0-0-2-2-2-2-2-2-2-2-2-2-2-2-2-2-2-2-|
D|-2-2-2-2-2-2-2-2-2-2-2-2-2-2-2-2-2-2-2-2-2-2-2-2-2-2-2-2-2-2-2-2-| x2
A|-3-3-3-3-3-3-3-3-3-3-3-3-3-3-3-3-0-0-0-0-0-0-0-0-0-0-0-0-0-0-0-0-|
E|-----------------------------------------------------------------|
  F               Fm
E|-1-1-1-1-1-1-1-1-4-4-4-4~~~~-----|
B|-1-1-1-1-1-1-1-1-6-6-6-6~~~~-----|
G|-2-2-2-2-2-2-2-2-5-5-5-5~~~~-----|
D|-3-3-3-3-3-3-3-3-3-3-3-3~~~~-----|
A|-3-3-3-3-3-3-3-3-----------------|
E|---------------------------------|

Bridge
  C            Am
E|---0-----0-------|
B|-1-1-111-1-1-1-1-|
G|-0-0-000-0-0-2-2-|
D|-2-2-222-2-2-2-2-| x4
A|-3-3-333-3-3-0-0-|
E|-----------------|

Verse
  C            Am
E|---0-----0-------|
B|-1-1-111-1-1-1-1-|
G|-0-0-000-0-0-2-2-|
D|-2-2-222-2-2-2-2-| x4
A|-3-3-333-3-3-0-0-|
E|-----------------|

  Em
E|---0-----0-0-0---|
B|-0-0-000-0-0-0-0-|
G|-0-0-000-0-0-0-0-|
D|-2-2-222-2-2-2-2-| x2
A|-2-2-222-2-2-2-2-|
E|-0-0-000-0-0-0-0-|

  F
E|-1-1-111-1-1-1-1-|
B|-1-1-111-1-1-1-1-|
G|-2-2-222-2-2-2-2-|
D|-3-3-333-3-3-3-3-|
A|-----------------|
E|-----------------|

  Fm
E|-4-4-4-4-4~~~~~~~|
B|-6-6-6-6-6~~~~~~~|
G|-5-5-5-5-5~~~~~~~|
D|-3-3-3-3-3~~~~~~~|
A|-----------------|
E|-----------------|

Chorus 
  C                               Am
E|-0-0-0-0-0-0-0-0-0-0-0-0-0-0-0-0-0-0-0-0-0-0-0-0-0-0-0-0-0-0-0-0-|
B|-1-1-1-1-1-1-1-1-1-1-1-1-1-1-1-1-1-1-1-1-1-1-1-1-1-1-1-1-1-1-1-1-|
G|-0-0-0-0-0-0-0-0-0-0-0-0-0-0-0-0-2-2-2-2-2-2-2-2-2-2-2-2-2-2-2-2-|
D|-2-2-2-2-2-2-2-2-2-2-2-2-2-2-2-2-2-2-2-2-2-2-2-2-2-2-2-2-2-2-2-2-| x2
A|-3-3-3-3-3-3-3-3-3-3-3-3-3-3-3-3-0-0-0-0-0-0-0-0-0-0-0-0-0-0-0-0-|
E|-----------------------------------------------------------------|
  F               Fm
E|-1-1-1-1-1-1-1-1-4-4-4-4~~~~-----|
B|-1-1-1-1-1-1-1-1-6-6-6-6~~~~-----|
G|-2-2-2-2-2-2-2-2-5-5-5-5~~~~-----|
D|-3-3-3-3-3-3-3-3-3-3-3-3~~~~-----|
A|-3-3-3-3-3-3-3-3-----------------|
E|---------------------------------|

Interlude 
  Am               F            G
E|-0-0-0-0-0-0-0-0-1-1-1-1-1-1-1-3-|
B|-1-1-1-1-1-1-1-1-1-1-1-1-1-1-1-3-|
G|-2-2-2-2-2-2-2-2-2-2-2-2-2-2-2-0-|
D|-2-2-2-2-2-2-2-2-3-3-3-3-3-3-3-0-| x2
A|-0-0-0-0-0-0-0-0---------------2-|
E|-------------------------------3-|

E|-0-0-0-0-0-0-0-0-1-1-1-1-1-1-1-1-|
B|-0-0-0-0-0-0-0-0-1-1-1-1-1-1-1-1-|
G|-0-0-0-0-0-0-0-0-2-2-2-2-2-2-2-2-| x2
D|-2-2-2-2-2-2-2-2-3-3-3-3-3-3-3-3-|
A|-2-2-2-2-2-2-2-2-----------------|
E|-0-0-0-0-0-0-0-0-----------------|

Solo
  C                               Am
E|-0-0-0-0-0-0-0-0-0-0-0-0-0-0-0-0-0-0-0-0-0-0-0-0-0-0-0-0-0-0-0-0-|
B|-1-1-1-1-1-1-1-1-1-1-1-1-1-1-1-1-1-1-1-1-1-1-1-1-1-1-1-1-1-1-1-1-|
G|-0-0-0-0-0-0-0-0-0-0-0-0-0-0-0-0-2-2-2-2-2-2-2-2-2-2-2-2-2-2-2-2-|
D|-2-2-2-2-2-2-2-2-2-2-2-2-2-2-2-2-2-2-2-2-2-2-2-2-2-2-2-2-2-2-2-2-| x2
A|-3-3-3-3-3-3-3-3-3-3-3-3-3-3-3-3-0-0-0-0-0-0-0-0-0-0-0-0-0-0-0-0-|
E|-----------------------------------------------------------------|
  F               Fm
E|-1-1-1-1-1-1-1-1-4--4--4---------|
B|-1-1-1-1-1-1-1-1-6--6--6---------|
G|-2-2-2-2-2-2-2-2-5--5--5---------|
D|-3-3-3-3-3-3-3-3-3--3--3---------|
A|-3-3-3-3-3-3-3-3-----------------|
E|---------------------------------|

Chorus
  C                               Am
E|-0-0-0-0-0-0-0-0-0-0-0-0-0-0-0-0-0-0-0-0-0-0-0-0-0-0-0-0-0-0-0-0-|
B|-1-1-1-1-1-1-1-1-1-1-1-1-1-1-1-1-1-1-1-1-1-1-1-1-1-1-1-1-1-1-1-1-|
G|-0-0-0-0-0-0-0-0-0-0-0-0-0-0-0-0-2-2-2-2-2-2-2-2-2-2-2-2-2-2-2-2-|
D|-2-2-2-2-2-2-2-2-2-2-2-2-2-2-2-2-2-2-2-2-2-2-2-2-2-2-2-2-2-2-2-2-| x2
A|-3-3-3-3-3-3-3-3-3-3-3-3-3-3-3-3-0-0-0-0-0-0-0-0-0-0-0-0-0-0-0-0-|
E|-----------------------------------------------------------------|
  F               Fm
E|-1-1-1-1-1-1-1-1-4-4-4-4~~~~-----|
B|-1-1-1-1-1-1-1-1-6-6-6-6~~~~-----|
G|-2-2-2-2-2-2-2-2-5-5-5-5~~~~-----|
D|-3-3-3-3-3-3-3-3-3-3-3-3~~~~-----|
A|-3-3-3-3-3-3-3-3-----------------|
E|---------------------------------|

End On
E|-0~~-|
B|-1~~-|
G|-0~~-|
D|-2~~-|
A|-3~~-|
E|-----|

========================
Guitar 2 (Electric-Lead)

Intro 
E|-----------------|
B|-----------------|
G|-----------------|
D|-----------------| x4
A|-----------------|
E|-----------------|

Verse
E|---0---0---0---0-|
B|---1---1---1---1-|
G|---0---0---0---2-| x4
D|---2---2---2---2-|
A|-----------------|
E|-----------------|

E|---0---0---0---0-|
B|---0---0---0---0-|
G|---0---0---0---0-|
D|---2---2---2---2-| x2
A|-----------------|
E|-----------------|

E|---1---1---1---1-|
B|---1---1---1---1-|
G|---2---2---2---2-|
D|-----------------|
A|-----------------|
E|-----------------|

E|-4-4-4-4-4~~~~~~~|
B|-6-6-6-6-6~~~~~~~|
G|-5-5-5-5-5~~~~~~~|
D|-----------------|
A|-----------------|
E|-----------------|

Chorus 
  C                               Am
E|-0-0-0-0-0-0-0-0-0-0-0-0-0-0-0-0-0-0-0-0-0-0-0-0-0-0-0-0-0-0-0-0-|
B|-1-1-1-1-1-1-1-1-1-1-1-1-1-1-1-1-1-1-1-1-1-1-1-1-1-1-1-1-1-1-1-1-|
G|-0-0-0-0-0-0-0-0-0-0-0-0-0-0-0-0-2-2-2-2-2-2-2-2-2-2-2-2-2-2-2-2-|
D|-2-2-2-2-2-2-2-2-2-2-2-2-2-2-2-2-2-2-2-2-2-2-2-2-2-2-2-2-2-2-2-2-| x2
A|-3-3-3-3-3-3-3-3-3-3-3-3-3-3-3-3-0-0-0-0-0-0-0-0-0-0-0-0-0-0-0-0-|
E|-----------------------------------------------------------------|
  F               Fm
E|-1-1-1-1-1-1-1-1-4-4-4-4~~~~-----|
B|-1-1-1-1-1-1-1-1-6-6-6-6~~~~-----|
G|-2-2-2-2-2-2-2-2-5-5-5-5~~~~-----|
D|-3-3-3-3-3-3-3-3-3-3-3-3~~~~-----|
A|-3-3-3-3-3-3-3-3-----------------|
E|---------------------------------|

Bridge
E|---0---0---0---0-|
B|---1---1---1---1-|
G|---0---0---0---2-| x4
D|---2---2---2---2-|
A|-----------------|
E|-----------------|

Verse
E|---0---0---0---0-|
B|---1---1---1---1-|
G|---0---0---0---2-| x4
D|---2---2---2---2-|
A|-----------------|
E|-----------------|

E|---0---0---0---0-|
B|---0---0---0---0-|
G|---0---0---0---0-|
D|---2---2---2---2-| x2
A|-----------------|
E|-----------------|

E|---1---1---1---1-|
B|---1---1---1---1-|
G|---2---2---2---2-|
D|-----------------|
A|-----------------|
E|-----------------|

E|-4-4-4-4-4~~~~~~~|
B|-6-6-6-6-6~~~~~~~|
G|-5-5-5-5-5~~~~~~~|
D|-----------------|
A|-----------------|
E|-----------------|

Chorus 
  C                               Am
E|-0-0-0-0-0-0-0-0-0-0-0-0-0-0-0-0-0-0-0-0-0-0-0-0-0-0-0-0-0-0-0-0-|
B|-1-1-1-1-1-1-1-1-1-1-1-1-1-1-1-1-1-1-1-1-1-1-1-1-1-1-1-1-1-1-1-1-|
G|-0-0-0-0-0-0-0-0-0-0-0-0-0-0-0-0-2-2-2-2-2-2-2-2-2-2-2-2-2-2-2-2-|
D|-2-2-2-2-2-2-2-2-2-2-2-2-2-2-2-2-2-2-2-2-2-2-2-2-2-2-2-2-2-2-2-2-| x2
A|-3-3-3-3-3-3-3-3-3-3-3-3-3-3-3-3-0-0-0-0-0-0-0-0-0-0-0-0-0-0-0-0-|
E|-----------------------------------------------------------------|
  F               Fm
E|-1-1-1-1-1-1-1-1-4-4-4-4~~~~-----|
B|-1-1-1-1-1-1-1-1-6-6-6-6~~~~-----|
G|-2-2-2-2-2-2-2-2-5-5-5-5~~~~-----|
D|-3-3-3-3-3-3-3-3-3-3-3-3~~~~-----|
A|-3-3-3-3-3-3-3-3-----------------|
E|---------------------------------|

Interlude
E|---0---0---0---0---1---1---1---3-|
B|---1---1---1---1---1---1---1---3-|
G|---2---2---2---2---2---2---2---4-|
D|---2---2---2---2---3---3---3---5-| x2
A|---------------------------------|
E|---------------------------------|

E|---0-0-0---0---0-1-1-1-1-1-1-1-1-|
B|---0-0-0---0---0-1-1-1-1-1-1-1-1-|
G|---0-0-0---0---0-2-2-2-2-2-2-2-2-| x2
D|---2-2-2---2---2-3-3-3-3-3-3-3-3-|
A|---------------------------------|
E|---------------------------------|

Solo
E|-----------------------------5~-5------------5------------|
B|---------------------5---5-8------5------------5----------|
G|-------------5---5-7---7------------5-7-5~-5-----5-7-5~-5-|
D|-----5---5-7---7------------------------------------------|
A|-5-7---7--------------------------------------------------|
E|----------------------------------------------------------|

E|-----------------------------5~-5------------5------------|
B|---------------------5---5-8------5------------5----------|
G|-------------5---5-7---7------------5-7-5~-5-----5-7-5~---|
D|-----5---5-7---7------------------------------------------|
A|-5-7---7--------------------------------------------------|
E|----------------------------------------------------------|

E|-1-1-1-1-1-1-1-1-4--4--4---------|
B|-1-1-1-1-1-1-1-1-6--6--6---------|
G|-2-2-2-2-2-2-2-2-5--5--5---------|
D|-3-3-3-3-3-3-3-3-3--3--3---------|
A|-3-3-3-3-3-3-3-3-----------------|
E|---------------------------------|

Chorus 
  C                               Am
E|-0-0-0-0-0-0-0-0-0-0-0-0-0-0-0-0-0-0-0-0-0-0-0-0-0-0-0-0-0-0-0-0-|
B|-1-1-1-1-1-1-1-1-1-1-1-1-1-1-1-1-1-1-1-1-1-1-1-1-1-1-1-1-1-1-1-1-|
G|-0-0-0-0-0-0-0-0-0-0-0-0-0-0-0-0-2-2-2-2-2-2-2-2-2-2-2-2-2-2-2-2-|
D|-2-2-2-2-2-2-2-2-2-2-2-2-2-2-2-2-2-2-2-2-2-2-2-2-2-2-2-2-2-2-2-2-| x2
A|-3-3-3-3-3-3-3-3-3-3-3-3-3-3-3-3-0-0-0-0-0-0-0-0-0-0-0-0-0-0-0-0-|
E|-----------------------------------------------------------------|
  F               Fm
E|-1-1-1-1-1-1-1-1-4-4-4-4~~~~-----|
B|-1-1-1-1-1-1-1-1-6-6-6-6~~~~-----|
G|-2-2-2-2-2-2-2-2-5-5-5-5~~~~-----|
D|-3-3-3-3-3-3-3-3-3-3-3-3~~~~-----|
A|-3-3-3-3-3-3-3-3-----------------|
E|---------------------------------|

End On
E|-0~~-|
B|-1~~-|
G|-0~~-|
D|-2~~-|
A|-----|
E|-----|

================
Guitar 3 (Piano)

Second Verse
E|-----------------|    |-----------------|    
B|-----------------|    |-----------------|    
G|-------------9-9-| x4 |-----------------| x4 
D|-5-5-5-5-5-5-7-7-|    |-9-9-9-9-9-9-9-9-|    
A|-3-3-3-3-3-3-----|    |-7-7-7-7-7-7-7-7-|    
E|-----------------|    |-----------------|    

E|-----------------------------|
B|-----------------------------|
G|-----------------------------|
D|1010101010101010-6-6-6-6-6~~-|
A|-8-8-8-8-8-8-8-8-8-8-8-8-8~~-|
E|-----------------------------|

End.

- - - - - - - - - - - - - - - - - - - - - - - - - - - - - - - - - - - - 

Track #5

Artist: The Subways
Song: Young For Eternity
Album: Young For Eternity
Tuning: Flats - Eb Ab Db Gb Bb Eb
Tabbed By James Morris

Intro
Eb|--------|
Bb|--------|
Gb|--------|
Db|--------|
Ab|--------|
Eb|-//\\//-| (slide)

Main Riff
Eb|-------------------------------------------------------------------|
Bb|-0--0-0-----------0--0-0-----------0--0-0-----------7-7-7-7--------|
Gb|-1--1-1-/12121212-1--1-1-/12121212-1--1-1-/12121212-7-7-7-7-4-4-4-4|
Db|-2--2-2-/-x-x-x-x-2--2-2-/-x-x-x-x-2--2-2-/-x-x-x-x-7-7-7-7-5-5-5-5|
Ab|-2--2-2-/10101010-2--2-2-/10101010-2--2-2-/10101010-5-5-5-5-5-5-5-5|
Eb|-0--0-0-----------0--0-0-----------0--0-0-------------------3-3-3-3|

Eb|-------------------------------------------------------------------|
Bb|-0--0-0-----------0--0-0-----------0--0-0-----------7-7-7-7--------|
Gb|-1--1-1-/12121212-1--1-1-/12121212-1--1-1-/12121212-7-7-7-7-4-4-4-4|
Db|-2--2-2-/-x-x-x-x-2--2-2-/-x-x-x-x-2--2-2-/-x-x-x-x-7-7-7-7-5-5-5-5|
Ab|-2--2-2-/10101010-2--2-2-/10101010-2--2-2-/10101010-5-5-5-5-5-5-5-5|
Eb|-0--0-0-----------0--0-0-----------0--0-0-------------------3-3-3-3|

Eb|-----------------------------------------------------------------|
Bb|-----------------------------------------------------------------|
Gb|-9-9-9-9-9-9-9-9-9-9-9-9-9-9-9-9-9-9-9-9-9-9-9-9-9-9-9-9-9-9-9-9-|
Db|-9-9-9-9-9-9-9-9-9-9-9-9-9-9-9-9-9-9-9-9-9-9-9-9-9-9-9-9-9-9-9-9-|
Ab|-7-7-7-7-7-7-7-7-7-7-7-7-7-7-7-7-7-7-7-7-7-7-7-7-7-7-7-7-7-7-7-7-|
Eb|-0-0-0-0-0-0-0-0-0-0-0-0-0-0-0-0-0-0-0-0-0-0-0-0-0-0-0-0-0-0-0-0-|

Verse
Eb|-----------------------------------------------------------------|
Bb|-------------------------------------------------7-7-7-7---------|
Gb|-9-9-9-9-9-9-9-9-9-9-9-9-9-9-9-9-9-9-9-9-9-9-9-9-7-7-7-7-4-4-4-4-|
Db|-9-9-9-9-9-9-9-9-9-9-9-9-9-9-9-9-9-9-9-9-9-9-9-9-7-7-7-7-5-5-5-5-|
Ab|-7-7-7-7-7-7-7-7-7-7-7-7-7-7-7-7-7-7-7-7-7-7-7-7-5-5-5-5-5-5-5-5-|
Eb|-0-0-0-0-0-0-0-0-0-0-0-0-0-0-0-0-0-0-0-0-0-0-0-0---------3-3-3-3-|

Eb|-----------------------------------------------------------------|
Bb|-------------------------------------------------7-7-7-7---------|
Gb|-9-9-9-9-9-9-9-9-9-9-9-9-9-9-9-9-9-9-9-9-9-9-9-9-7-7-7-7-4-4-4-4-|
Db|-9-9-9-9-9-9-9-9-9-9-9-9-9-9-9-9-9-9-9-9-9-9-9-9-7-7-7-7-5-5-5-5-|
Ab|-7-7-7-7-7-7-7-7-7-7-7-7-7-7-7-7-7-7-7-7-7-7-7-7-5-5-5-5-5-5-5-5-|
Eb|-0-0-0-0-0-0-0-0-0-0-0-0-0-0-0-0-0-0-0-0-0-0-0-0---------3-3-3-3-|

Chorus
Eb|-------------------------------------------------------------------|
Bb|-0--0-0-----------0--0-0-----------0--0-0-----------7-7-7-7--------|
Gb|-1--1-1-/12121212-1--1-1-/12121212-1--1-1-/12121212-7-7-7-7-4-4-4-4|
Db|-2--2-2-/-x-x-x-x-2--2-2-/-x-x-x-x-2--2-2-/-x-x-x-x-7-7-7-7-5-5-5-5|
Ab|-2--2-2-/10101010-2--2-2-/10101010-2--2-2-/10101010-5-5-5-5-5-5-5-5|
Eb|-0--0-0-----------0--0-0-----------0--0-0-------------------3-3-3-3|

Eb|-------------------------------------------------------------------|
Bb|-0--0-0-----------0--0-0-----------0--0-0-----------7-7-7-7--------|
Gb|-1--1-1-/12121212-1--1-1-/12121212-1--1-1-/12121212-7-7-7-7-4-4-4-4|
Db|-2--2-2-/-x-x-x-x-2--2-2-/-x-x-x-x-2--2-2-/-x-x-x-x-7-7-7-7-5-5-5-5|
Ab|-2--2-2-/10101010-2--2-2-/10101010-2--2-2-/10101010-5-5-5-5-5-5-5-5|
Eb|-0--0-0-----------0--0-0-----------0--0-0-------------------3-3-3-3|

Bridge
Eb|-----------------------------------------------------------------|
Bb|-------------------------------------------------7-7-7-7---------|
Gb|-9-9-9-9-9-9-9-9-9-9-9-9-9-9-9-9-9-9-9-9-9-9-9-9-7-7-7-7-4-4-4-4-|
Db|-9-9-9-9-9-9-9-9-9-9-9-9-9-9-9-9-9-9-9-9-9-9-9-9-7-7-7-7-5-5-5-5-|
Ab|-7-7-7-7-7-7-7-7-7-7-7-7-7-7-7-7-7-7-7-7-7-7-7-7-5-5-5-5-5-5-5-5-|
Eb|-0-0-0-0-0-0-0-0-0-0-0-0-0-0-0-0-0-0-0-0-0-0-0-0---------3-3-3-3-|

Eb|-----------------------------------------------------------------|
Bb|-------------------------------------------------7-7-7-7---------|
Gb|-9-9-9-9-9-9-9-9-9-9-9-9-9-9-9-9-9-9-9-9-9-9-9-9-7-7-7-7-4-4-4-4-|
Db|-9-9-9-9-9-9-9-9-9-9-9-9-9-9-9-9-9-9-9-9-9-9-9-9-7-7-7-7-5-5-5-5-|
Ab|-7-7-7-7-7-7-7-7-7-7-7-7-7-7-7-7-7-7-7-7-7-7-7-7-5-5-5-5-5-5-5-5-|
Eb|-0-0-0-0-0-0-0-0-0-0-0-0-0-0-0-0-0-0-0-0-0-0-0-0---------3-3-3-3-|

Verse 2
Eb|-----------------------------------------------------------------|
Bb|-------------------------------------------------7-7-7-7---------|
Gb|-------------------------------------------------7-7-7-7-4-4-4-4-|
Db|-------------------------------------------------7-7-7-7-5-5-5-5-|
Ab|-------------------------------------------------5-5-5-5-5-5-5-5-|
Eb|---------------------------------------------------------3-3-3-3-|

Eb|-----------------------------------------------------------------|
Bb|-------------------------------------------------7-7-7-7---------|
Gb|-9-9-9-9-9-9-9-9-9-9-9-9-9-9-9-9-9-9-9-9-9-9-9-9-7-7-7-7-4-4-4-4-|
Db|-9-9-9-9-9-9-9-9-9-9-9-9-9-9-9-9-9-9-9-9-9-9-9-9-7-7-7-7-5-5-5-5-|
Ab|-7-7-7-7-7-7-7-7-7-7-7-7-7-7-7-7-7-7-7-7-7-7-7-7-5-5-5-5-5-5-5-5-|
Eb|-0-0-0-0-0-0-0-0-0-0-0-0-0-0-0-0-0-0-0-0-0-0-0-0---------3-3-3-3-|

Chorus
Eb|-------------------------------------------------------------------|
Bb|-0--0-0-----------0--0-0-----------0--0-0-----------7-7-7-7--------|
Gb|-1--1-1-/12121212-1--1-1-/12121212-1--1-1-/12121212-7-7-7-7-4-4-4-4|
Db|-2--2-2-/-x-x-x-x-2--2-2-/-x-x-x-x-2--2-2-/-x-x-x-x-7-7-7-7-5-5-5-5|
Ab|-2--2-2-/10101010-2--2-2-/10101010-2--2-2-/10101010-5-5-5-5-5-5-5-5|
Eb|-0--0-0-----------0--0-0-----------0--0-0-------------------3-3-3-3|

Eb|-------------------------------------------------------------------|
Bb|-0--0-0-----------0--0-0-----------0--0-0-----------7-7-7-7--------|
Gb|-1--1-1-/12121212-1--1-1-/12121212-1--1-1-/12121212-7-7-7-7-4-4-4-4|
Db|-2--2-2-/-x-x-x-x-2--2-2-/-x-x-x-x-2--2-2-/-x-x-x-x-7-7-7-7-5-5-5-5|
Ab|-2--2-2-/10101010-2--2-2-/10101010-2--2-2-/10101010-5-5-5-5-5-5-5-5|
Eb|-0--0-0-----------0--0-0-----------0--0-0-------------------3-3-3-3|

Breakdown
Guitar 1    * = Harmonics
Eb|----------------------------------------------------------------|
Bb|----------------------------------------------------------------|
Gb|----------------------------------------------------------------|
Db|------------------------------------------------7-7-7-7---------|
Ab|------------------------------------------------5-5-5-5-5-5-5-5-|
Eb|-0-0-3*0-0-0-3*0-0-0-3*0-0-0-3*0-0-0-3*0-0-0-3*---------3-3-3-3-|

Guitar 2
Eb|----------------------------------------------------------------|
Bb|----------------------------------------------------------------|
Gb|------------------------------------------------7-7-7-7---------|
Db|------------------------------------------------7-7-7-7-5-5-5-5-|
Ab|------------------------------------------------5-5-5-5-5-5-5-5-|
Eb|--------------------------------------------------------3-3-3-3-|

Guitar 1
Eb|-----------------------------------------------------------------|
Bb|-----------------------------------------------------------------|
Gb|-----------------------------------------------------------------|
Db|-------------------------------------------------7-7-7-7---------|
Ab|-----2---0-1-2-2-----2---0-1-2-2-----2---0-1-2-2-5-5-5-5-5~~-----|
Eb|-0-0---0---------0-0---0---------0-0---0-----------------3~~-----|

Guitar 2
Eb|-----------------------------------------------------------------|
Bb|-----------------------------------------------------------------|
Gb|-------------------------------------------------7-7-7-7---------|
Db|-----4---2-3-4-4-----4---2-3-4-4-----4---2-3-4-4-7-7-7-7-5-------|
Ab|-2-2-2-2-0-1-2-2-2-2-2-2-0-1-2-2-2-2-2-2-0-1-2-2-5-5-5-5-5-------|
Eb|-0-0---0---------0-0---0---------0-0---0-----------------3---3*--|

Chorus
Eb|-----------------------------------------------------------------|
Bb|-------------------------------------------------7-7-7-7---------|
Gb|-9-9-9-9-9-9-9-9-9-9-9-9-9-9-9-9-9-9-9-9-9-9-9-9-7-7-7-7-4-4-4-4-|
Db|-9-9-9-9-9-9-9-9-9-9-9-9-9-9-9-9-9-9-9-9-9-9-9-9-7-7-7-7-5-5-5-5-|
Ab|-7-7-7-7-7-7-7-7-7-7-7-7-7-7-7-7-7-7-7-7-7-7-7-7-5-5-5-5-5-5-5-5-|
Eb|-0-0-0-0-0-0-0-0-0-0-0-0-0-0-0-0-0-0-0-0-0-0-0-0---------3-3-3-3-|

Eb|-----------------------------------------------------------------|
Bb|-------------------------------------------------7-7-7-7---------|
Gb|-9-9-9-9-9-9-9-9-9-9-9-9-9-9-9-9-9-9-9-9-9-9-9-9-7-7-7-7-4-4-4-4-|
Db|-9-9-9-9-9-9-9-9-9-9-9-9-9-9-9-9-9-9-9-9-9-9-9-9-7-7-7-7-5-5-5-5-|
Ab|-7-7-7-7-7-7-7-7-7-7-7-7-7-7-7-7-7-7-7-7-7-7-7-7-5-5-5-5-5-5-5-5-|
Eb|-0-0-0-0-0-0-0-0-0-0-0-0-0-0-0-0-0-0-0-0-0-0-0-0---------3-3-3-3-|

Outro
Guitar 1
Eb|-----------------------------------------------------------------|
Bb|-----------------------------------------------------------------|
Gb|-----------------------------------------------------------------|
Db|-------------------------------------------------7-7-7-7---------|
Ab|-----2---0-1-2-2-----2---0-1-2-2-----2---0-1-2-2-5-5-5-5-5-5-5-5-|
Eb|-0-0---0---------0-0---0---------0-0---0-----------------3-3-3-3-|

Guitar 2
Eb|-----------------------------------------------------------------|
Bb|-----------------------------------------------------------------|
Gb|-------------------------------------------------7-7-7-7---------|
Db|-----4---2-3-4-4-----4---2-3-4-4-----4---2-3-4-4-7-7-7-7-5-5-5-5-|
Ab|-2-2-2-2-0-1-2-2-2-2-2-2-0-1-2-2-2-2-2-2-0-1-2-2-5-5-5-5-5-5-5-5-|
Eb|-0-0---0---------0-0---0---------0-0---0-----------------3-3-3-3-|

Guitar 1
Eb|-----------------------------------------------------------------|
Bb|-----------------------------------------------------------------|
Gb|-----------------------------------------------------------------|
Db|-------------------------------------------------7-7-7-7---------|
Ab|-----2---0-1-2-2-----2---0-1-2-2-----2---0-1-2-2-5-5-5-5-5-5-5-5-|
Eb|-0-0---0---------0-0---0---------0-0---0-----------------3-3-3-3-|

Guitar 2
Eb|-----------------------------------------------------------------|
Bb|-----------------------------------------------------------------|
Gb|-------------------------------------------------7-7-7-7---------|
Db|-----4---2-3-4-4-----4---2-3-4-4-----4---2-3-4-4-7-7-7-7-5-5-5-5-|
Ab|-2-2-2-2-0-1-2-2-2-2-2-2-0-1-2-2-2-2-2-2-0-1-2-2-5-5-5-5-5-5-5-5-|
Eb|-0-0---0---------0-0---0---------0-0---0-----------------3-3-3-3-|

End On
Eb|-0~-|
Bb|-0~-|
Gb|-1~-|
Db|-2~-|
Ab|-2~-|
Eb|-0~-|

End.

- - - - - - - - - - - - - - - - - - - - - - - - - - - - - - - - - - - - 

Track #6

Artist: The Subways
Song: Lines Of Light
Album: Young For Eternity
Tuning: Standard - E A D G B E 
Tabbed By James Morris

Intro/Verse
E|-0-0-0-0-0-0-0-0-3-3-3-3-3-3-3-3-2-2-2-2-2-2-2-2-0-0-0-0-0-0-0-0-|
B|-0-0-0-0-0-0-0-0-0-0-0-0-0-0-0-0-3-3-3-3-3-3-3-3-0-0-0-0-0-0-0-0-|
G|-0-0-0-0-0-0-0-0-0-0-0-0-0-0-0-0-2-2-2-2-2-2-2-2-0-0-0-0-0-0-0-0-|
D|-2-2-2-2-2-2-2-2-0-0-0-0-0-0-0-0-0-0-0-0-0-0-0-0-2-2-2-2-2-2-2-2-| x4
A|-2-2-2-2-2-2-2-2-2-2-2-2-2-2-2-2-----------------2-2-2-2-2-2-2-2-|
E|-0-0-0-0-0-0-0-0-3-3-3-3-3-3-3-3-----------------0-0-0-0-0-0-0-0-|

Build Up
E|--------0---------------0---------------0----------0---0---0-0-0-|
B|---------3---------------3---------------3----------3---3----3-3-|
G|----0-----0--0------0-----0--0------0-----0--0----0--0---0---0-0-|
D|---2--2-----2--2---2--2-----2--2---2--2-----2--2-2-----------2-2-|
A|-------------------------------------------------------------2-2-|
E|-0---------------0---------------0---------------------------0-0-|

Chorus
E|-0-0-0-0-0-0-0-0-3-3-3-3-3-3-3-3-0-0-0-0-0-0-0-0-2-2-2-2-2-2-2-2-|
B|-3-3-3-3-3-3-3-3-3-3-3-3-3-3-3-3-1-1-1-1-1-1-1-1-3-3-3-3-3-3-3-3-|
G|-0-0-0-0-0-0-0-0-0-0-0-0-0-0-0-0-2-2-2-2-2-2-2-2-2-2-2-2-2-2-2-2-|
D|-2-2-2-2-2-2-2-2-0-0-0-0-0-0-0-0-2-2-2-2-2-2-2-2-0-0-0-0-0-0-0-0-| x4
A|-2-2-2-2-2-2-2-2-x-x-x-x-x-x-x-x-0-0-0-0-0-0-0-0-----------------|
E|-0-0-0-0-0-0-0-0-3-3-3-3-3-3-3-3---------------------------------|

End On
E|-0~|
B|-0~|
G|-0~|
D|-2~|
A|-2~|
E|-0~|

End.
- - - - - - - - - - - - - - - - - - - - - - - - - - - - - - - - - - - - 

Track #7

Artist: The Subways
Song: Oh Yeah
Album: Young For Eternity
Tuning: Flats - Eb Ab Db Gb Bb Eb
Tabbed By James Morris

Drum intro then:

Eb|-0-0-0-0-0-3-2-2-|
Bb|-0-0-0-0-0-3-3-3-|
Gb|-1-1-1-1-0-0-2-2-|
Db|-2-2-2-2-0-0-0-0-| x4
Ab|-2-2-2-2-0-x-----|
Eb|-0-0-0-0-0-3-----|

Verse
Eb|-0~-----0------0----------------0~-----0------0-----------------|
Bb|-0~-----0------0----------------0~-----0------0-----------------|
Gb|-1~-----1------1----------------1~-----1------1-----------------|
Db|-2~-----2------2----------------2~-----2------2-----------------|
Ab|-2~------------2----------------2~------------2-----------------|
Eb|-0~---------------------3-2-3-2-0~----------------------3-2-3-2-|

Eb|-3-3-3-3-3-3-3-3-0-0-0-0-0-0-0-0-|
Bb|-3-3-3-3-3-3-3-3-2-2-2-2-1-1-1-1-|
Gb|-0-0-0-0-0-0-0-0-2-2-2-2-0-0-0-0-|
Db|-0-0-0-0-0-0-0-0-2-2-2-2-2-2-2-2-|
Ab|-x-x-x-x-x-x-x-x-0-0-0-0-3-3-3-3-|
Eb|-3-3-3-3-3-3-3-3-----------------|

Eb|-0-0-0-0-0-3-2-2-|
Bb|-0-0-0-0-0-3-3-3-|
Gb|-1-1-1-1-0-0-2-2-|
Db|-2-2-2-2-0-0-0-0-| x2
Ab|-2-2-2-2-0-x-----|
Eb|-0-0-0-0-0-3-----|

Eb|-3-3-3-3-3-3-3-3-0-0-0-0-0-0-0-0-|
Bb|-3-3-3-3-3-3-3-3-2-2-2-2-1-1-1-1-|
Gb|-0-0-0-0-0-0-0-0-2-2-2-2-0-0-0-0-|
Db|-0-0-0-0-0-0-0-0-2-2-2-2-2-2-2-2-|
Ab|-x-x-x-x-x-x-x-x-0-0-0-0-3-3-3-3-|
Eb|-3-3-3-3-3-3-3-3-----------------|

Eb|-0-0-0-0-0-3-2-2-|
Bb|-0-0-0-0-0-3-3-3-|
Gb|-1-1-1-1-0-0-2-2-|
Db|-2-2-2-2-0-0-0-0-| x2
Ab|-2-2-2-2-0-x-----|
Eb|-0-0-0-0-0-3-----|

Pre-chorus

Eb|---------------------------------|
Bb|---------------------------------|
Gb|-9-9-9-9-9-9-9-9-9-9-9-9-9-999-9-|
Db|-9-9-9-9-9-9-9-9-9-9-9-9-9-999-9-| x3 
Ab|-7-7-7-7-7-7-7-7-7-7-7-7-7-777-7-|
Eb|-0-0-0-0-0-0-0-0-0-0-0-0-0-000-0-|

Then

Eb|---------------------------------|
Bb|---------------------------------|
Gb|-9-9-9-9-9-9-9-9~----------------|
Db|-9-9-9-9-9-9-9-9~----------------| x1
Ab|-7-7-7-7-7-7-7-7~----------------|
Eb|-0-0-0-0-0-0-0-0~----------------|

Chorus
                   'Oh Yeah, Oh Yeah'
Eb|-0-0-0-0-2-2-2-2-0-0-0-0-0-0-0-0-|
Bb|-0-0-0-0-3-3-3-3-1-1-1-1-1-1-1-1-|
Gb|-1-1-1-1-2-2-2-2-0-0-0-0-0-0-0-0-|
Db|-2-2-2-2-0-0-0-0-2-2-2-2-2-2-2-2-| x4
Ab|-2-2-2-2---------3-3-3-3-3-3-3-3-|
Eb|-0-0-0-0-------------------------|

Eb|-0-0-0-0-0-3-2-2-|
Bb|-0-0-0-0-0-3-3-3-|
Gb|-1-1-1-1-0-0-2-2-|
Db|-2-2-2-2-0-0-0-0-| x2
Ab|-2-2-2-2-0-x-----|
Eb|-0-0-0-0-0-3-----|

Verse 2

Eb|-0~-----0------0----------------0~-----0------0-----------------|
Bb|-0~-----0------0----------------0~-----0------0-----------------|
Gb|-1~-----1------1----------------1~-----1------1-----------------|
Db|-2~-----2------2----------------2~-----2------2-----------------|
Ab|-2~------------2----------------2~------------2-----------------|
Eb|-0~---------------------3-2-3-2-0~----------------------3-2-3-2-|


Eb|-3-3-3-3-3-3-3-3-0-0-0-0-0-0-0-0-|
Bb|-3-3-3-3-3-3-3-3-2-2-2-2-1-1-1-1-|
Gb|-0-0-0-0-0-0-0-0-2-2-2-2-0-0-0-0-|
Db|-0-0-0-0-0-0-0-0-2-2-2-2-2-2-2-2-|
Ab|-x-x-x-x-x-x-x-x-0-0-0-0-3-3-3-3-|
Eb|-3-3-3-3-3-3-3-3-----------------|

Eb|-0-0-0-0-0-3-2-2-|
Bb|-0-0-0-0-0-3-3-3-|
Gb|-1-1-1-1-0-0-2-2-|
Db|-2-2-2-2-0-0-0-0-| x2
Ab|-2-2-2-2-0-x-----|
Eb|-0-0-0-0-0-3-----|

Eb|-3-3-3-3-3-3-3-3-0-0-0-0-0-0-0-0-|
Bb|-3-3-3-3-3-3-3-3-2-2-2-2-1-1-1-1-|
Gb|-0-0-0-0-0-0-0-0-2-2-2-2-0-0-0-0-|
Db|-0-0-0-0-0-0-0-0-2-2-2-2-2-2-2-2-|
Ab|-x-x-x-x-x-x-x-x-0-0-0-0-3-3-3-3-|
Eb|-3-3-3-3-3-3-3-3-----------------|

Eb|-0-0-0-0-0-3-2-2-|
Bb|-0-0-0-0-0-3-3-3-|
Gb|-1-1-1-1-0-0-2-2-|
Db|-2-2-2-2-0-0-0-0-| x2
Ab|-2-2-2-2-0-x-----|
Eb|-0-0-0-0-0-3-----|

Pre-chorus

Eb|---------------------------------|
Bb|-7-7-7-7-7-7-7-7-7-7-7-7-7-777-7-|
Gb|-9-9-9-9-9-9-9-9-9-9-9-9-9-999-9-|
Db|-9-9-9-9-9-9-9-9-9-9-9-9-9-999-9-| x3 
Ab|-7-7-7-7-7-7-7-7-7-7-7-7-7-777-7-|
Eb|-0-0-0-0-0-0-0-0-0-0-0-0-0-000-0-|

Then

Eb|---------------------------------|
Bb|-7-7-7-7-7-7-7-7~----------------|
Gb|-9-9-9-9-9-9-9-9~----------------|
Db|-9-9-9-9-9-9-9-9~----------------| x1
Ab|-7-7-7-7-7-7-7-7~----------------|
Eb|-0-0-0-0-0-0-0-0~----------------|

Chorus
                   'Oh Yeah, Oh Yeah'
Eb|-0-0-0-0-2-2-2-2-0-0-0-0-0-0-0-0-|
Bb|-0-0-0-0-3-3-3-3-1-1-1-1-1-1-1-1-|
Gb|-1-1-1-1-2-2-2-2-0-0-0-0-0-0-0-0-|
Db|-2-2-2-2-0-0-0-0-2-2-2-2-2-2-2-2-| x4
Ab|-2-2-2-2---------3-3-3-3-3-3-3-3-|
Eb|-0-0-0-0-------------------------|

Eb|-0-0-0-0-0-3-2-2-|
Bb|-0-0-0-0-0-3-3-3-|
Gb|-1-1-1-1-0-0-2-2-|
Db|-2-2-2-2-0-0-0-0-| x2
Ab|-2-2-2-2-0-x-----|
Eb|-0-0-0-0-0-3-----|

Outro
Eb|-0~-----0------0----------------0~-----0------0-----------------|
Bb|-0~-----0------0----------------0~-----0------0-----------------|
Gb|-1~-----1------1----------------1~-----1------1-----------------|
Db|-2~-----2------2----------------2~-----2------2-----------------|
Ab|-2~------------2----------------2~------------2-----------------|
Eb|-0~---------------------3-2-3-2-0~----------------------3-2-3-2-|

End on
Eb|-0-|
Bb|-0-|
Gb|-1-|
Db|-2-|
Ab|-2-|
Eb|-0-|

- - - - - - - - - - - - - - - - - - - - - - - - - - - - - - - - - - - - 

Track #8

Artist: The Subways
Song: City Pavement
Album: Young For Eternity
Tuning: Flats - Eb Ab Db Gb Bb Eb
Tabbed By James Morris

Intro                         
Eb|-0--0-0-0--0-0-0--0-0-2-2-2-|     
Bb|-0--0-0-0--0-0-0--0-0-3-3-3-|     
Gb|-1--1-0-1--1-0-1--1-0-2-2-2-|     
Db|-2--2-0-2--2-0-2--2-0-0-0-0-|     
Ab|-2--2-0-2--2-0-2--2-0-x-x-x-|     
Eb|-0--0---0--0---0--0---------|     
                                     
Eb|-0--0-0-0--0-0-0--0-0-3-3-3-|     
Bb|-0--0-0-0--0-0-0--0-0-3-3-3-|     
Gb|-1--1-0-1--1-0-1--1-0-0-0-0-|     
Db|-2--2-0-2--2-0-2--2-0-0-0-0-|     
Ab|-2--2-0-2--2-0-2--2-0-x-x-x-|     
Eb|-0--0---0--0---0--0---3-3-3-|     
                                     
Verse                                
Eb|-0--0-0-0--0-0-0--0-0-2-2-2-|     
Bb|-0--0-0-0--0-0-0--0-0-3-3-3-|     
Gb|-1--1-0-1--1-0-1--1-0-2-2-2-|     
Db|-2--2-0-2--2-0-2--2-0-0-0-0-|     
Ab|-2--2-0-2--2-0-2--2-0-x-x-x-|
Eb|-0--0---0--0---0--0---------|

Eb|-0--0-0-0--0-0-0--0-0-3-3-3-|
Bb|-0--0-0-0--0-0-0--0-0-3-3-3-|
Gb|-1--1-0-1--1-0-1--1-0-0-0-0-|
Db|-2--2-0-2--2-0-2--2-0-0-0-0-|
Ab|-2--2-0-2--2-0-2--2-0-x-x-x-|
Eb|-0--0---0--0---0--0---3-3-3-|

Chorus
Guitar 1
Eb|---------------------------------|
Bb|---------------------------------|
Gb|-8-8-8-8-8-8-8-8-6-6-6-6-6-6-6-6-|
Db|-9-9-9-9-9-9-9-9-7-7-7-7-7-7-7-7-| x3
Ab|-9-9-9-9-9-9-9-9-7-7-7-7-7-7-7-7-|
Eb|-7-7-7-7-7-7-7-7-5-5-5-5-5-5-5-5-|

Guitar 2
Eb|-------7-------7-------5-------5-|
Bb|-------7-------7-------5-------5-|
Gb|-------8-------8-------6-------6-| x3
Db|-------9-------9-------7-------7-|
Ab|---------------------------------|
Eb|---------------------------------|

Eb|-----------------------------------------|
Bb|-----------------------------------------|
Gb|-8-8-8-8-8-8-8-8/12-12-12-12-12-12-12-12-|
Db|-9-9-9-9-9-9-9-9/12-12-12-12-12-12-12-12-|
Ab|-9-9-9-9-9-9-9-9/10-10-10-10-10-10-10-10-|
Eb|-7-7-7-7-7-7-7-7-------------------------|

Guitar 2
Eb|-------7-------7-----------------|
Bb|-------7-------7-----------------|
Gb|-------8-------8-----------------|
Db|-------9-------9-----------------|
Ab|---------------------------------|
Eb|---------------------------------|

Bridge                        
Eb|-0--0-0-0--0-0-0--0-0-2-2-2-|     
Bb|-0--0-0-0--0-0-0--0-0-3-3-3-|     
Gb|-1--1-0-1--1-0-1--1-0-2-2-2-|     
Db|-2--2-0-2--2-0-2--2-0-0-0-0-|     
Ab|-2--2-0-2--2-0-2--2-0-x-x-x-|     
Eb|-0--0---0--0---0--0---------|     
                                     
Eb|-0--0-0-0--0-0-0--0-0-3-3-3-|     
Bb|-0--0-0-0--0-0-0--0-0-3-3-3-|     
Gb|-1--1-0-1--1-0-1--1-0-0-0-0-|     
Db|-2--2-0-2--2-0-2--2-0-0-0-0-|     
Ab|-2--2-0-2--2-0-2--2-0-x-x-x-|     
Eb|-0--0---0--0---0--0---3-3-3-|     
                                     
Verse                                
Eb|-0--0-0-0--0-0-0--0-0-2-2-2-|     
Bb|-0--0-0-0--0-0-0--0-0-3-3-3-|     
Gb|-1--1-0-1--1-0-1--1-0-2-2-2-|     
Db|-2--2-0-2--2-0-2--2-0-0-0-0-|     
Ab|-2--2-0-2--2-0-2--2-0-x-x-x-|
Eb|-0--0---0--0---0--0---------|

Eb|-0--0-0-0--0-0-0--0-0-3-3-3-|
Bb|-0--0-0-0--0-0-0--0-0-3-3-3-|
Gb|-1--1-0-1--1-0-1--1-0-0-0-0-|
Db|-2--2-0-2--2-0-2--2-0-0-0-0-|
Ab|-2--2-0-2--2-0-2--2-0-x-x-x-|
Eb|-0--0---0--0---0--0---3-3-3-|

Chorus
Guitar 1
Eb|---------------------------------|
Bb|---------------------------------|
Gb|-8-8-8-8-8-8-8-8-6-6-6-6-6-6-6-6-|
Db|-9-9-9-9-9-9-9-9-7-7-7-7-7-7-7-7-| x3
Ab|-9-9-9-9-9-9-9-9-7-7-7-7-7-7-7-7-|
Eb|-7-7-7-7-7-7-7-7-5-5-5-5-5-5-5-5-|

Guitar 2
Eb|-------7-------7-------5-------5-|
Bb|-------7-------7-------5-------5-|
Gb|-------8-------8-------6-------6-| x3
Db|-------9-------9-------7-------7-|
Ab|---------------------------------|
Eb|---------------------------------|

Guitar 1
Eb|-----------------------------------------|
Bb|-----------------------------------------|
Gb|-8-8-8-8-8-8-8-8/12-12-12-12-12-12-12-12-|
Db|-9-9-9-9-9-9-9-9/12-12-12-12-12-12-12-12-|
Ab|-9-9-9-9-9-9-9-9/10-10-10-10-10-10-10-10-|
Eb|-7-7-7-7-7-7-7-7-------------------------|

Guitar 2
Eb|-------7-------7-----------------|
Bb|-------7-------7-----------------|
Gb|-------8-------8-----------------|
Db|-------9-------9-----------------|
Ab|---------------------------------|
Eb|---------------------------------|

Bridge
Eb|----------------------|
Bb|----------------------|
Gb|----------------7-7-7-|
Db|-7/10-7/10-7/10-7-7-7-|
Ab|-7/10-7/10-7/10-5-5-5-|
Eb|-5/-8-5/-8-5/-8-------|

Eb|----------------------|
Bb|----------------------|
Gb|----------------------|
Db|-7/10-7/10-7/10-5-5-5-|
Ab|-7/10-7/10-7/10-5-5-5-|
Eb|-5/-8-5/-8-5/-8-3-3-3-|

Eb|----------------------|
Bb|----------------------|
Gb|----------------7-7-7-|
Db|-7/10-7/10-7/10-7-7-7-|
Ab|-7/10-7/10-7/10-5-5-5-|
Eb|-5/-8-5/-8-5/-8-------|

Eb|----------------------|
Bb|----------------------|
Gb|----------------------|
Db|-7/10-7/10-7/10-5-5-5-|
Ab|-7/10-7/10-7/10-5-5-5-|
Eb|-5/-8-5/-8-5/-8-3-3-3-|

Eb|-----------------------------------------------------------------|
Bb|-----------------------------------------------------------------|
Gb|-7-7-7-7-7-7-7-7-7-7-7-7-7-7-7-7-7-7-7-7-7-7-7-7-7-7-7-7-8-8-8-8-|
Db|-7-7-7-7-7-7-7-7-7-7-7-7-7-7-7-7-7-7-7-7-7-7-7-7-7-7-7-7-8-8-8-8-|
Ab|-5-5-5-5-5-5-5-5-5-5-5-5-5-5-5-5-5-5-5-5-5-5-5-5-5-5-5-5-6-6-6-6-|
Eb|-----------------------------------------------------------------|

Build Up
Eb|-0--0-0-0--0-0-0--0-0-2-2-2-|     
Bb|-0--0-0-0--0-0-0--0-0-3-3-3-|     
Gb|-1--1-0-1--1-0-1--1-0-2-2-2-|     
Db|-2--2-0-2--2-0-2--2-0-0-0-0-|     
Ab|-2--2-0-2--2-0-2--2-0-x-x-x-|     
Eb|-0--0---0--0---0--0---------|     
                                     
Eb|-0--0-0-0--0-0-0--0-0-3-3-3-|     
Bb|-0--0-0-0--0-0-0--0-0-3-3-3-|     
Gb|-1--1-0-1--1-0-1--1-0-0-0-0-|     
Db|-2--2-0-2--2-0-2--2-0-0-0-0-|     
Ab|-2--2-0-2--2-0-2--2-0-x-x-x-|     
Eb|-0--0---0--0---0--0---3-3-3-|   

Guitar 2 (Gradual slide up)

Chorus  
Eb|---------------------------------|
Bb|---------------------------------|
Gb|-8-8-8-8-8-8-8-8-6-6-6-6-6-6-6-6-|
Db|-9-9-9-9-9-9-9-9-7-7-7-7-7-7-7-7-| x3
Ab|-9-9-9-9-9-9-9-9-7-7-7-7-7-7-7-7-|
Eb|-7-7-7-7-7-7-7-7-5-5-5-5-5-5-5-5-|

Guitar 2
Eb|-------7-------7-------5-------5-|
Bb|-------7-------7-------5-------5-|
Gb|-------8-------8-------6-------6-| x3
Db|-------9-------9-------7-------7-|
Ab|---------------------------------|
Eb|---------------------------------|

Guitar 1
Eb|-----------------------------------------|
Bb|-----------------------------------------|
Gb|-8-8-8-8-8-8-8-8/12-12-12-12-12-12-12-12-|
Db|-9-9-9-9-9-9-9-9/12-12-12-12-12-12-12-12-|
Ab|-9-9-9-9-9-9-9-9/10-10-10-10-10-10-10-10-|
Eb|-7-7-7-7-7-7-7-7-------------------------|

Guitar 2
Eb|-------7-------7-----------------|
Bb|-------7-------7-----------------|
Gb|-------8-------8-----------------|
Db|-------9-------9-----------------|
Ab|---------------------------------|
Eb|---------------------------------|

Outro
Eb|-0--0-0-0--0-0-0--0-0-2-2-2-|     
Bb|-0--0-0-0--0-0-0--0-0-3-3-3-|     
Gb|-1--1-0-1--1-0-1--1-0-2-2-2-|     
Db|-2--2-0-2--2-0-2--2-0-0-0-0-|     
Ab|-2--2-0-2--2-0-2--2-0-x-x-x-|     
Eb|-0--0---0--0---0--0---------|     
                                     
Eb|-0--0-0-0--0-0-0--0-0-3-3-3-|     
Bb|-0--0-0-0--0-0-0--0-0-3-3-3-|     
Gb|-1--1-0-1--1-0-1--1-0-0-0-0-|     
Db|-2--2-0-2--2-0-2--2-0-0-0-0-|     
Ab|-2--2-0-2--2-0-2--2-0-x-x-x-|     
Eb|-0--0---0--0---0--0---3-3-3-|

End On
Eb|-0~~~~0----------------|
Bb|-0~~~~0----------------|
Gb|-1~~~~1------1-1-1-1-0-|
Db|-2~~~~2------2-2-2-2-2-|
Ab|-2~~~~-------2-2-2-2-2-|
Eb|-0~~~~-----------------|

End.

- - - - - - - - - - - - - - - - - - - - - - - - - - - - - - - - - - - - 

Track #9

Artist: The Subways
Song: No Goodbyes
Album: Young For Eternity
Tuning: Standard - E A D G B E
Tabbed By James Morris

Intro
E|-0--0-0-3-3-3-3-0--0-0-3-3-3-3-0--0-0-3-3-3-3-0---0-0-3-3-3-3-|
B|-1--1-1-3-3-3-3-1--1-1-3-3-3-3-1--1-1-3-3-3-3-1---1-1-3-3-3-3-|
G|-2--2-2-0-0-0-0-2--2-2-0-0-0-0-2--2-2-0-0-0-0-2---2-2-0-0-0-0-|
D|-2--2-2-0-0-0-0-2--2-2-0-0-0-0-2--2-2-0-0-0-0-2---2-2-0-0-0-0-| x2
A|-0--0-0-x-x-x-x-0--0-0-x-x-x-x-0--0-0-x-x-x-x-0---0-0-x-x-x-x-|
E|--------3-3-3-3--------3-3-3-3--------3-3-3-3---------3-3-3-3-|

Verse 
     'I can see the light behind your ey—es'...
E|-0--0-0-3-3-3-3-0--0-0-3-3-3-3-0--0-0-3-3-3-3-0---0-0-3-3-3-3-|
B|-1--1-1-3-3-3-3-1--1-1-3-3-3-3-1--1-1-3-3-3-3-1---1-1-3-3-3-3-|
G|-2--2-2-0-0-0-0-2--2-2-0-0-0-0-2--2-2-0-0-0-0-2---2-2-0-0-0-0-|
D|-2--2-2-0-0-0-0-2--2-2-0-0-0-0-2--2-2-0-0-0-0-2---2-2-0-0-0-0-| x2
A|-0--0-0-x-x-x-x-0--0-0-x-x-x-x-0--0-0-x-x-x-x-0---0-0-x-x-x-x-|
E|--------3-3-3-3--------3-3-3-3--------3-3-3-3---------3-3-3-3-|

Chorus
         'With every single day      we'll never feel the same'...
E|-0-0-0-0-0-0-0-0-0-0-0-0-0-0-0-0-2-2-2-2-2-2-2-2-2-2-2-2-2-2-2-2-|
B|-1-1-1-1-1-1-1-1-1-1-1-1-1-1-1-1-3-3-3-3-3-3-3-3-3-3-3-3-3-3-3-3-|
G|-0-0-0-0-0-0-0-0-0-0-0-0-0-0-0-0-2-2-2-2-2-2-2-2-2-2-2-2-2-2-2-2-|
D|-2-2-2-2-2-2-2-2-2-2-2-2-2-2-2-2-0-0-0-0-0-0-0-0-0-0-0-0-0-0-0-0-|
A|-3-3-3-3-3-3-3-3-3-3-3-3-3-3-3-3---------------------------------|
E|-----------------------------------------------------------------|

E|-0-0-0-0-0-0-0-0-0-0-0-0-0-0-0-0-2-2-2-2-2-2-2-2-2-2-2-2-2-2-2-2-|
B|-1-1-1-1-1-1-1-1-1-1-1-1-1-1-1-1-3-3-3-3-3-3-3-3-3-3-3-3-3-3-3-3-|
G|-0-0-0-0-0-0-0-0-0-0-0-0-0-0-0-0-2-2-2-2-2-2-2-2-2-2-2-2-2-2-2-2-|
D|-2-2-2-2-2-2-2-2-2-2-2-2-2-2-2-2-0-0-0-0-0-0-0-0-0-0-0-0-0-0-0-0-|
A|-3-3-3-3-3-3-3-3-3-3-3-3-3-3-3-3---------------------------------|
E|-----------------------------------------------------------------|

Verse
E|-0--0-0-3-3-3-3-0--0-0-3-3-3-3-0--0-0-3-3-3-3-0---0-0-3-3-3-3-|
B|-1--1-1-3-3-3-3-1--1-1-3-3-3-3-1--1-1-3-3-3-3-1---1-1-3-3-3-3-|
G|-2--2-2-0-0-0-0-2--2-2-0-0-0-0-2--2-2-0-0-0-0-2---2-2-0-0-0-0-|
D|-2--2-2-0-0-0-0-2--2-2-0-0-0-0-2--2-2-0-0-0-0-2---2-2-0-0-0-0-| x4
A|-0--0-0-x-x-x-x-0--0-0-x-x-x-x-0--0-0-x-x-x-x-0---0-0-x-x-x-x-|
E|--------3-3-3-3--------3-3-3-3--------3-3-3-3---------3-3-3-3-|

Chorus
'With every single day      we'll never feel the same'...
E|-0-0-0-0-0-0-0-0-0-0-0-0-0-0-0-0-2-2-2-2-2-2-2-2-2-2-2-2-2-2-2-2-|
B|-1-1-1-1-1-1-1-1-1-1-1-1-1-1-1-1-3-3-3-3-3-3-3-3-3-3-3-3-3-3-3-3-|
G|-0-0-0-0-0-0-0-0-0-0-0-0-0-0-0-0-2-2-2-2-2-2-2-2-2-2-2-2-2-2-2-2-|
D|-2-2-2-2-2-2-2-2-2-2-2-2-2-2-2-2-0-0-0-0-0-0-0-0-0-0-0-0-0-0-0-0-|
A|-3-3-3-3-3-3-3-3-3-3-3-3-3-3-3-3---------------------------------|
E|-----------------------------------------------------------------|

E|-0-0-0-0-0-0-0-0-0-0-0-0-0-0-0-0-2-2-2-2-2-2-2-2-2-2-2-2-2-2-2-2-|
B|-1-1-1-1-1-1-1-1-1-1-1-1-1-1-1-1-3-3-3-3-3-3-3-3-3-3-3-3-3-3-3-3-|
G|-0-0-0-0-0-0-0-0-0-0-0-0-0-0-0-0-2-2-2-2-2-2-2-2-2-2-2-2-2-2-2-2-|
D|-2-2-2-2-2-2-2-2-2-2-2-2-2-2-2-2-0-0-0-0-0-0-0-0-0-0-0-0-0-0-0-0-|
A|-3-3-3-3-3-3-3-3-3-3-3-3-3-3-3-3---------------------------------|
E|-----------------------------------------------------------------|
 

Middle Section
      'Tell me,        tell me   there's no goodbyes'
E|-0--0-0-3-3-3-3-0--0-0-3-3-3-3-0--0-0-3-3-3-3-0---0-0-3-3-3-3-|
B|-1--1-1-3-3-3-3-1--1-1-3-3-3-3-1--1-1-3-3-3-3-1---1-1-3-3-3-3-|
G|-2--2-2-0-0-0-0-2--2-2-0-0-0-0-2--2-2-0-0-0-0-2---2-2-0-0-0-0-|
D|-2--2-2-0-0-0-0-2--2-2-0-0-0-0-2--2-2-0-0-0-0-2---2-2-0-0-0-0-| x4
A|-0--0-0-x-x-x-x-0--0-0-x-x-x-x-0--0-0-x-x-x-x-0---0-0-x-x-x-x-|
E|--------3-3-3-3--------3-3-3-3--------3-3-3-3---------3-3-3-3-|

      'Oh no'
E|-2-2-2-2-2-2-2-2-2-2-2-2-2-2-2-2-|
B|-3-3-3-3-3-3-3-3-3-3-3—3-3-3-3-3-|
G|-2-2-2-2-2-2-2-2-2-2-2-2-2-2-2-2-|
D|-0-0-0-0-0-0-0-0-0-0-0-0-0-0-0-0-|
A|---------------------------------|
E|---------------------------------|

Bridge
E|-0--0-0-3-3-3-3-0--0-0-3-3-3-3-0--0-0-3-3-3-3-0---0-0-3-3-3-3-|
B|-1--1-1-3-3-3-3-1--1-1-3-3-3-3-1--1-1-3-3-3-3-1---1-1-3-3-3-3-|
G|-2--2-2-0-0-0-0-2--2-2-0-0-0-0-2--2-2-0-0-0-0-2---2-2-0-0-0-0-|
D|-2--2-2-0-0-0-0-2--2-2-0-0-0-0-2--2-2-0-0-0-0-2---2-2-0-0-0-0-| x4
A|-0--0-0-x-x-x-x-0--0-0-x-x-x-x-0--0-0-x-x-x-x-0---0-0-x-x-x-x-|
E|--------3-3-3-3--------3-3-3-3--------3-3-3-3---------3-3-3-3-|

Chorus
'With every single day      we'll never feel the same'...
E|-0-0-0-0-0-0-0-0-0-0-0-0-0-0-0-0-2-2-2-2-2-2-2-2-2-2-2-2-2-2-2-2-|
B|-1-1-1-1-1-1-1-1-1-1-1-1-1-1-1-1-3-3-3-3-3-3-3-3-3-3-3-3-3-3-3-3-|
G|-0-0-0-0-0-0-0-0-0-0-0-0-0-0-0-0-2-2-2-2-2-2-2-2-2-2-2-2-2-2-2-2-|
D|-2-2-2-2-2-2-2-2-2-2-2-2-2-2-2-2-0-0-0-0-0-0-0-0-0-0-0-0-0-0-0-0-|
A|-3-3-3-3-3-3-3-3-3-3-3-3-3-3-3-3---------------------------------|
E|-----------------------------------------------------------------|

E|-0-0-0-0-0-0-0-0-0-0-0-0-0-0-0-0-2-2-2-2-2-2-2-2-2-2-2-2-2-2-2-2-|
B|-1-1-1-1-1-1-1-1-1-1-1-1-1-1-1-1-3-3-3-3-3-3-3-3-3-3-3-3-3-3-3-3-|
G|-0-0-0-0-0-0-0-0-0-0-0-0-0-0-0-0-2-2-2-2-2-2-2-2-2-2-2-2-2-2-2-2-|
D|-2-2-2-2-2-2-2-2-2-2-2-2-2-2-2-2-0-0-0-0-0-0-0-0-0-0-0-0-0-0-0-0-|
A|-3-3-3-3-3-3-3-3-3-3-3-3-3-3-3-3---------------------------------|
E|-----------------------------------------------------------------|

Middle Section
      'Tell me,        tell me   there's no goodbyes'
E|-0--0-0-3-3-3-3-0--0-0-3-3-3-3-0--0-0-3-3-3-3-0---0-0-3-3-3-3-|
B|-1--1-1-3-3-3-3-1--1-1-3-3-3-3-1--1-1-3-3-3-3-1---1-1-3-3-3-3-|
G|-2--2-2-0-0-0-0-2--2-2-0-0-0-0-2--2-2-0-0-0-0-2---2-2-0-0-0-0-|
D|-2--2-2-0-0-0-0-2--2-2-0-0-0-0-2--2-2-0-0-0-0-2---2-2-0-0-0-0-| x4
A|-0--0-0-x-x-x-x-0--0-0-x-x-x-x-0--0-0-x-x-x-x-0---0-0-x-x-x-x-|
E|--------3-3-3-3--------3-3-3-3--------3-3-3-3---------3-3-3-3-|

      'Oh no'
E|-2-2-2-2-2-2-2-2-2-2-2-2-2-2-2-2-|
B|-3-3-3-3-3-3-3-3-3-3-3—3-3-3-3-3-|
G|-2-2-2-2-2-2-2-2-2-2-2-2-2-2-2-2-|
D|-0-0-0-0-0-0-0-0-0-0-0-0-0-0-0-0-|
A|---------------------------------|
E|---------------------------------|

Outro
Guitar 1
E|-0--0-0-3-3-3-3-0--0-0-3-3-3-3-0--0-0-3-3-3-3-0---0-0-3-3-3-3-|
B|-1--1-1-3-3-3-3-1--1-1-3-3-3-3-1--1-1-3-3-3-3-1---1-1-3-3-3-3-|
G|-2--2-2-0-0-0-0-2--2-2-0-0-0-0-2--2-2-0-0-0-0-2---2-2-0-0-0-0-|
D|-2--2-2-0-0-0-0-2--2-2-0-0-0-0-2--2-2-0-0-0-0-2---2-2-0-0-0-0-| 
A|-0--0-0-x-x-x-x-0--0-0-x-x-x-x-0--0-0-x-x-x-x-0---0-0-x-x-x-x-|
E|--------3-3-3-3--------3-3-3-3--------3-3-3-3---------3-3-3-3-|
Guitar 2	
E|--------------------------------------------------------3---3-|
B|--------------------------------------------------------3---3-|
G|--------------------------------------------------------0---0-|
D|--------------------------------------------------------0---0-|
A|--------------------------------------------------------x---x-|
E|--------------------------------------------------------3---3-|

Guitar 1
E|-0--0-0-3-3-3-3-0--0-0-3-3-3-3-0--0-0-3-3-3-3-0---0-0-3-3-3-3-|
B|-1--1-1-3-3-3-3-1--1-1-3-3-3-3-1--1-1-3-3-3-3-1---1-1-3-3-3-3-|
G|-2--2-2-0-0-0-0-2--2-2-0-0-0-0-2--2-2-0-0-0-0-2---2-2-0-0-0-0-|
D|-2--2-2-0-0-0-0-2--2-2-0-0-0-0-2--2-2-0-0-0-0-2---2-2-0-0-0-0-| 
A|-0--0-0-x-x-x-x-0--0-0-x-x-x-x-0--0-0-x-x-x-x-0---0-0-x-x-x-x-|
E|--------3-3-3-3--------3-3-3-3--------3-3-3-3---------3-3-3-3-|

Guitar 2	
E|--------------------------------------------------------------|
B|--------------------------------------------------------------|
G|--------------------------------------------------------------|
D|--------------------------------------------------------------|
A|--------------------------------------------------------------|
E|--------------------------------------------------------------|

End On.
E|-0~~~~~~-|
B|-1~~~~~~-|
G|-2~~~~~~-|
D|-2~~~~~~-|
A|-0~~~~~~-|
E|---------|

End.

- - - - - - - - - - - - - - - - - - - - - - - - - - - - - - - - - - - - 

Track #10

Artist: The Subways
Song: With You
Album: Young For Eternity
Tuning: Flats - Eb Ab Db Gb Bb Eb
Tabbed By James Morris

Intro
Eb|---------------------------------|
Bb|---------------------------------|
Gb|-6-6-6-6-6-6-6-6-6-6-6-6-6-6-6-6-|
Db|-x-x-x-x-x-x-x-x-x-x-x-x-x-x-x-x-|
Ab|-4-4-4-4-4-4-4-4-4-4-4-4-4-4-4-4-|
Eb|---------------------------------|

Verse
        'I live my life walking down the street...'
Eb|-----------------------------------------------------------------|
Bb|-----------------------------------------------------------------|
Gb|-6-6-6-6-6-6-6-6-6-6-6-6-6-6-6-6-6-6-6-6-6-6-6-6-6-6-6-6-8-8-8---|
Db|-x-x-x-x-x-x-x-x-x-x-x-x-x-x-x-x-x-x-x-x-x-x-x-x-x-x-x-x-x-x-x---|
Ab|-4-4-4-4-4-4-4-4-4-4-4-4-4-4-4-4-4-4-4-4-4-4-4-4-4-4-4-4-6-6-6---|
Eb|-----------------------------------------------------------------|

  'All the time I see your reflection...'
Eb|-0-0-0-0-0-0-0-0-0-0-0-0-0-0-0-0-0-0-0-0-0-0-0-0-0-0-0-0-0-0-0-0-|     
Bb|-0-0-0-0-0-0-0-0-0-0-0-0-0-0-0-0-0-0-0-0-0-0-0-0-0-0-0-0-0-0-0-0-|     
Gb|-1-1-1-1-1-1-1-1-1-1-1-1-1-1-1-1-1-1-1-1-1-1-1-1-1-1-1-1-1-1-1-1-|     
Db|-2-2-2-2-2-2-2-2-2-2-2-2-2-2-2-2-2-2-2-2-2-2-2-2-2-2-2-2-2-2-2-2-|     
Ab|-2-2-2-2-2-2-2-2-2-2-2-2-2-2-2-2-2-2-2-2-2-2-2-2-2-2-2-2-2-2-2-2-|     
Eb|-0-0-0-0-0-0-0-0-0-0-0-0-0-0-0-0-0-0-0-0-0-0-0-0-0-0-0-0-0-0-0-0-|

   'It's ok to feel alone...'
Eb|-----------------------------------------------------------------|
Bb|-----------------------------------------------------------------|
Gb|-6-6-x-x-6-6-x-x-6-6-x-x-6-6-x-x-6-6-x-x-6-6-x-x-6-6-x-6-8-8-8-8-|
Db|-x-x-x-x-x-x-x-x-x-x-x-x-x-x-x-x-x-x-x-x-x-x-x-x-x-x-x-x-x-x-x-x-|
Ab|-4-4-x-x-4-4-x-x-4-4-x-x-4-4-x-x-4-4-x-x-4-4-x-x-4-4-x-4-6-6-6-6-|
Eb|-----------------------------------------------------------------|

'All the time I see your reflection...'
Eb|-0-0-0-0-0-0-0-0-0-0-0-0-0-0-0-0-0-0-0-0-0-0-0-0-0-0-0-0-0-0-0-0-|     
Bb|-0-0-0-0-0-0-0-0-0-0-0-0-0-0-0-0-0-0-0-0-0-0-0-0-0-0-0-0-0-0-0-0-|     
Gb|-1-1-1-1-1-1-1-1-1-1-1-1-1-1-1-1-1-1-1-1-1-1-1-1-1-1-1-1-1-1-1-1-|     
Db|-2-2-2-2-2-2-2-2-2-2-2-2-2-2-2-2-2-2-2-2-2-2-2-2-2-2-2-2-2-2-2-2-|     
Ab|-2-2-2-2-2-2-2-2-2-2-2-2-2-2-2-2-2-2-2-2-2-2-2-2-2-2-2-2-2-2-2-2-|     
Eb|-0-0-0-0-0-0-0-0-0-0-0-0-0-0-0-0-0-0-0-0-0-0-0-0-0-0-0-0-0-0-0-0-|

Chorus
             'Cos when I'm with you...'
Eb|-----------5------------5----------------------------|
Bb|-5-5--5-5--5--5-5--5-5--5-------------9------------9-|
Gb|-6-6--6-6--6--6-6--6-6--6---9-9--9-9--9--9-9--9-9--9-|
Db|-7-7--7-7--7--7-7--7-7--7---9-9--9-9--9--9-9--9-9--9-|
Ab|-7-7--7-7--7--7-7--7-7--7---7-7--7-7--7--7-7--7-7--7-|
Eb|-5-5--5-5--5--5-5--5-5--5----------------------------|

Eb|-----------4------------4----------------------------|
Bb|-4-4--4-4--4--4-4--4-4--4-------------6--6-6-6-6-6-6-|
Gb|-5-5--5-5--5--5-5--5-5--5---6-6--6-6--6--6-6-6-6-6-6-|
Db|-6-6--6-6--6--6-6--6-6--6---6-6--6-6--6--6-6-6-6-6-6-|
Ab|-6-6--6-6--6--6-6--6-6--6---4-4--4-4--4--4-4-4-4-4-4-|
Eb|-4-4--4-4--4--4-4--4-4--4----------------------------|
            'My best days are with you...'
Eb|-5-5-5-5-5-5-5-5-5-5-5-5-5-5-5-5---------------------------------|
Bb|-5-5-6-5-5-5-5-5-5-5-5-5-5-5-5-5-9-9-9-9-9-9-9-9-9-9-9-9-9-9-9-9-|
Gb|-6-6-6-6-6-6-6-6-6-6-6-6-6-6-6-6-9-9-9-9-9-9-9-9-9-9-9-9-9-9-9-9-|
Db|-7-7-7-7-7-7-7-7-7-7-7-7-7-7-7-7-9-9-9-9-9-9-9-9-9-9-9-9-9-9-9-9-|
Ab|-7-7-7-7-7-7-7-7-7-7-7-7-7-7-7-7-7-7-7-7-7-7-7-7-7-7-7-7-7-7-7-7-|
Eb|-5-5-5-5-5-5-5-5-5-5-5-5-5-5-5-5---------------------------------|

Eb|-3-3-3-3-3-3-3-3-3-3-3-3-3-3-3-3---------------------------------|
Bb|-4-4-4-4-4-4-4-4-4-4-4-4-4-4-4-4-6-6-6-6-6-6-6-6-6-6-6-6-6-6-6-6-|
Gb|-5-5-5-5-5-5-5-5-5-5-5-5-5-5-5-5-6-6-6-6-6-6-6-6-6-6-6-6-6-6-6-6-|
Db|-6-6-6-6-6-6-6-6-6-6-6-6-6-6-6-6-6-6-6-6-6-6-6-6-6-6-6-6-6-6-6-6-|
Ab|-6-6-6-6-6-6-6-6-6-6-6-6-6-6-6-6-4-4-4-4-4-4-4-4-4-4-4-4-4-4-4-4-|
Eb|-4-4-4-4-4-4-4-4-4-4-4-4-4-4-4-4---------------------------------|

Bridge
Eb|-----------------------------------------------------------------|
Bb|-----------------------------------------------------------------|
Gb|-6-6-x-x-6-6-x-x-6-6-x-x-6-6-x-x-6-6-x-x-6-6-x-x-6-6-x-6-8-8-8-8-|
Db|-x-x-x-x-x-x-x-x-x-x-x-x-x-x-x-x-x-x-x-x-x-x-x-x-x-x-x-x-x-x-x-x-|
Ab|-4-4-x-x-4-4-x-x-4-4-x-x-4-4-x-x-4-4-x-x-4-4-x-x-4-4-x-4-6-6-6-6-|
Eb|-----------------------------------------------------------------|

Eb|-0-0-0-0-0-0-0-0-0-0-0-0-0-0-0-0-0-0-0-0-0-0-0-0-0-0-0-0-0-0-0-0-|     
Bb|-0-0-0-0-0-0-0-0-0-0-0-0-0-0-0-0-0-0-0-0-0-0-0-0-0-0-0-0-0-0-0-0-|     
Gb|-1-1-1-1-1-1-1-1-1-1-1-1-1-1-1-1-1-1-1-1-1-1-1-1-1-1-1-1-1-1-1-1-|     
Db|-2-2-2-2-2-2-2-2-2-2-2-2-2-2-2-2-2-2-2-2-2-2-2-2-2-2-2-2-2-2-2-2-|     
Ab|-2-2-2-2-2-2-2-2-2-2-2-2-2-2-2-2-2-2-2-2-2-2-2-2-2-2-2-2-2-2-2-2-|     
Eb|-0-0-0-0-0-0-0-0-0-0-0-0-0-0-0-0-0-0-0-0-0-0-0-0-0-0-0-0-0-0-0-0-|

Verse (Slow)                      _ _ _ _ _ _
Eb|---------------------------------|        | 
Bb|---6-----6-------6---6---6-------|        |
Gb|-----6-----6-------6-------6-----|        |
Db|-------6-----6---------6-----6---| x2     |
Ab|-4-------------4---------------4-|        |
Eb|---------------------------------|        |
                                             | Play this sequence x2
Eb|---------0---------------0-------|        |
Bb|---0-------0-----0---------0-----|        |
Gb|-----1-------1-----1---1-----1---|        |
Db|-------2-------2-----2---------2-| x2     |
Ab|---------------------------------|        |
Eb|-0-------------------------------|        |
                                 - - - - - -            
Chorus
             'Cos when I'm with you...'
Eb|-----------5------------5----------------------------|
Bb|-5-5--5-5--5--5-5--5-5--5-------------9------------9-|
Gb|-6-6--6-6--6--6-6--6-6--6---9-9--9-9--9--9-9--9-9--9-|
Db|-7-7--7-7--7--7-7--7-7--7---9-9--9-9--9--9-9--9-9--9-|
Ab|-7-7--7-7--7--7-7--7-7--7---7-7--7-7--7--7-7--7-7--7-|
Eb|-5-5--5-5--5--5-5--5-5--5----------------------------|

Eb|-----------4------------4----------------------------|
Bb|-4-4--4-4--4--4-4--4-4--4-------------6--6-6-6-6-6-6-|
Gb|-5-5--5-5--5--5-5--5-5--5---6-6--6-6--6--6-6-6-6-6-6-|
Db|-6-6--6-6--6--6-6--6-6--6---6-6--6-6--6--6-6-6-6-6-6-|
Ab|-6-6--6-6--6--6-6--6-6--6---4-4--4-4--4--4-4-4-4-4-4-|
Eb|-4-4--4-4--4--4-4--4-4--4----------------------------|
            'My best days are with you...'
Eb|-5-5-5-5-5-5-5-5-5-5-5-5-5-5-5-5---------------------------------|
Bb|-5-5-6-5-5-5-5-5-5-5-5-5-5-5-5-5-9-9-9-9-9-9-9-9-9-9-9-9-9-9-9-9-|
Gb|-6-6-6-6-6-6-6-6-6-6-6-6-6-6-6-6-9-9-9-9-9-9-9-9-9-9-9-9-9-9-9-9-|
Db|-7-7-7-7-7-7-7-7-7-7-7-7-7-7-7-7-9-9-9-9-9-9-9-9-9-9-9-9-9-9-9-9-|
Ab|-7-7-7-7-7-7-7-7-7-7-7-7-7-7-7-7-7-7-7-7-7-7-7-7-7-7-7-7-7-7-7-7-|
Eb|-5-5-5-5-5-5-5-5-5-5-5-5-5-5-5-5---------------------------------|

Eb|-3-3-3-3-3-3-3-3-3-3-3-3-3-3-3-3---------------------------------|
Bb|-4-4-4-4-4-4-4-4-4-4-4-4-4-4-4-4-6-6-6-6-6-6-6-6-6-6-6-6-6-6-6-6-|
Gb|-5-5-5-5-5-5-5-5-5-5-5-5-5-5-5-5-6-6-6-6-6-6-6-6-6-6-6-6-6-6-6-6-|
Db|-6-6-6-6-6-6-6-6-6-6-6-6-6-6-6-6-6-6-6-6-6-6-6-6-6-6-6-6-6-6-6-6-|
Ab|-6-6-6-6-6-6-6-6-6-6-6-6-6-6-6-6-4-4-4-4-4-4-4-4-4-4-4-4-4-4-4-4-|
Eb|-4-4-4-4-4-4-4-4-4-4-4-4-4-4-4-4---------------------------------|

Solo
Eb|-------------------------------------------------------------------|
Bb|-------------------------------------------------------------------|
Gb|-6-6-6-6-6-6-6-6-13131313-11111111-9-9-9-9-9-9-9-9-8-8-8-8-11111111|
Db|-x-x-x-x-x-x-x-x--x-x-x-x--x-x-x-x-x-x-x-x-x-x-x-x-x-x-x-x--x-x-x-x|
Ab|-4-4-4-4-4-4-4-4-11111111--9-9-9-9-7-7-7-7-7-7-7-7-6-6-6-6--9-9-9-9|
Eb|-------------------------------------------------------------------|

Eb|-------------------------------------------------------------------|
Bb|-------------------------------------------------------------------|
Gb|-131313131313131313131313131313131313131313131313131313131313131313|
Db|--x-x-x-x-x-x-x-x-x-x-x-x-x-x-x-x-x-x-x-x-x-x-x-x-x-x-x-x-x-x-x-x-x|
Ab|-111111111111111111111111111111111111111111111111111111111111111111|
Eb|-------------------------------------------------------------------|

Chorus
             'Cos when I'm with you...'
Eb|-----------5------------5----------------------------|
Bb|-5-5--5-5--5--5-5--5-5--5-------------9------------9-|
Gb|-6-6--6-6--6--6-6--6-6--6---9-9--9-9--9--9-9--9-9--9-|
Db|-7-7--7-7--7--7-7--7-7--7---9-9--9-9--9--9-9--9-9--9-|
Ab|-7-7--7-7--7--7-7--7-7--7---7-7--7-7--7--7-7--7-7--7-|
Eb|-5-5--5-5--5--5-5--5-5--5----------------------------|

Eb|-----------4------------4----------------------------|
Bb|-4-4--4-4--4--4-4--4-4--4-------------6--6-6-6-6-6-6-|
Gb|-5-5--5-5--5--5-5--5-5--5---6-6--6-6--6--6-6-6-6-6-6-|
Db|-6-6--6-6--6--6-6--6-6--6---6-6--6-6--6--6-6-6-6-6-6-|
Ab|-6-6--6-6--6--6-6--6-6--6---4-4--4-4--4--4-4-4-4-4-4-|
Eb|-4-4--4-4--4--4-4--4-4--4----------------------------|
            'My best days are with you...'
Eb|-5-5-5-5-5-5-5-5-5-5-5-5-5-5-5-5---------------------------------|
Bb|-5-5-6-5-5-5-5-5-5-5-5-5-5-5-5-5-9-9-9-9-9-9-9-9-9-9-9-9-9-9-9-9-|
Gb|-6-6-6-6-6-6-6-6-6-6-6-6-6-6-6-6-9-9-9-9-9-9-9-9-9-9-9-9-9-9-9-9-|
Db|-7-7-7-7-7-7-7-7-7-7-7-7-7-7-7-7-9-9-9-9-9-9-9-9-9-9-9-9-9-9-9-9-|
Ab|-7-7-7-7-7-7-7-7-7-7-7-7-7-7-7-7-7-7-7-7-7-7-7-7-7-7-7-7-7-7-7-7-|
Eb|-5-5-5-5-5-5-5-5-5-5-5-5-5-5-5-5---------------------------------|

Eb|-3-3-3-3-3-3-3-3-3-3-3-3-3-3-3-3---------------------------------|
Bb|-4-4-4-4-4-4-4-4-4-4-4-4-4-4-4-4-6-6-6-6-6-6-6-6-6-6-6-6-6-6-6-6-|
Gb|-5-5-5-5-5-5-5-5-5-5-5-5-5-5-5-5-6-6-6-6-6-6-6-6-6-6-6-6-6-6-6-6-|
Db|-6-6-6-6-6-6-6-6-6-6-6-6-6-6-6-6-6-6-6-6-6-6-6-6-6-6-6-6-6-6-6-6-|
Ab|-6-6-6-6-6-6-6-6-6-6-6-6-6-6-6-6-4-4-4-4-4-4-4-4-4-4-4-4-4-4-4-4-|
Eb|-4-4-4-4-4-4-4-4-4-4-4-4-4-4-4-4---------------------------------|

Outro
Eb|-------------------------------------------------------------------|
Bb|-------------------------------------------------------------------|
Gb|-6-6-6-6-6-6-6-6-13131313-11111111-9-9-9-9-9-9-9-9-8-8-8-8-11111111|
Db|-x-x-x-x-x-x-x-x--x-x-x-x--x-x-x-x-x-x-x-x-x-x-x-x-x-x-x-x--x-x-x-x|
Ab|-4-4-4-4-4-4-4-4-11111111--9-9-9-9-7-7-7-7-7-7-7-7-6-6-6-6--9-9-9-9|
Eb|-------------------------------------------------------------------|

End On
Eb|--------|
Bb|--------|
Gb|-13~~~~-|
Db|--x~~~~-|
Ab|-11~~~~-|
Eb|--------|

End On.

- - - - - - - - - - - - - - - - - - - - - - - - - - - - - - - - - - - - 

Track #11

Artist: The Subways
Song: She Sun
Album: Young For Eternity
Tuning: Standard - E A D G B E 
Tabbed By James Morris

Intro (Acoustic) Not sure if the rhythm is correct
E|-2-22-2-2-2-22-2-2-2-0-2-22-2-2-2-22-2-2-2-0-|
B|-2-22-2-2-2-22-2-2-2-0-3-33-3-3-3-33-3-3-3-0-|
G|-2-22-2-2-2-22-2-2-2-0-2-22-2-2-2-22-2-2-2-0-|
D|-4-44-4-4-4-44-4-4-4-0-0----0---0----0-0---0-| x4
A|-4-44-4-4-4-44-4-4-4-0---------------------0-|
E|-2----2---2----2-2---------------------------|

Verse
      'She sun...'
E|-2-22-2-2-2-22-2-2-2-0-2-22-2-2-2-22-2-2-2-0-|
B|-2-22-2-2-2-22-2-2-2-0-3-33-3-3-3-33-3-3-3-0-|
G|-2-22-2-2-2-22-2-2-2-0-2-22-2-2-2-22-2-2-2-0-|
D|-4-44-4-4-4-44-4-4-4-0-0----0---0----0-0---0-| x4
A|-4-44-4-4-4-44-4-4-4-0---------------------0-|
E|-2----2---2----2-2---------------------------|

Chorus
Guitar 1 (Acoustic)
        'Sea change...'
E|-2-22-2-2-2-22-2-2-2-0-2-22-2-2-2-22-2-2-2-0-|
B|-3-33-3-3-3-33-3-3-3-0-3-33-3-3-3-33-3-3-3-0-|
G|-4-44-4-4-4-44-4-4-4-0-2-22-2-2-2-22-2-2-2-0-|
D|-4-44-4-4-4-44-4-4-4-0-0----0---0----0-0---0-| x2
A|-2-22-2-2-2-22-2-2-2-0---------------------0-|
E|---------------------------------------------|

Order:
Intro x4
Verse x4
Chorus x2
Intro x4
Verse x4
Chorus x2
Verse Plays the song out
- - - - - - - - - - - - - - - - - - - - - - - - - - - - - - - - - - - - 

Track #12

Artist: The Subways
Song: Somewhere
Album: Young For Eternity
Tuning: Flats - Eb Ab Db Gb Bb Eb
Tabbed By James Morris

Intro
Eb|-Drums--||--------0---------0----------0------------------||
Bb|--------||--------0---------0----------0------------------||
Gb|--------||-5------1--5------1---5------1------------------||
Db|--------||-5-2-2--2--5-2-2--2---5-2-2--2--7-7-7-7-5-5-5---|| x2
Ab|--------||-3-2-2--2--3-2-2--2---3-2-2--2--7-7-7-7-5-5-5---||
Eb|--------||---0-0--0----0-0--0-----0-0--0--5-5-5-5-3-3-3---||

Verse (Acoustic)
                     'Somewhere...'           
Eb|-2-2-2-2-2-2-2-2-2-2-2-2-2-2-2-2-0-0-0-0-0-0-0-0-0-0-0-0-0-0-0-0-|
Bb|-3-3-3-3-3-3-3-3-3-3-3-3-3-3-3-3-1-1-1-1-1-1-1-1-1-1-1-1-1-1-1-1-|
Gb|-2-2-2-2-2-2-2-2-2-2-2-2-2-2-2-2-2-2-2-2-2-2-2-2-2-2-2-2-2-2-2-2-|
Db|-0-0-0-0-0-0-0-0-0-0-0-0-0-0-0-0-2-2-2-2-2-2-2-2-2-2-2-2-2-2-2-2-|x4
Ab|---------------------------------0-0-0-0-0-0-0-0-0-0-0-0-0-0-0-0-|
Eb|-----------------------------------------------------------------|

Main Riff
Eb|--------0---------0----------0------------------|
Bb|--------0---------0----------0------------------|
Gb|-5------1--5------1---5------1------------------|
Db|-5-2-2--2--5-2-2--2---5-2-2--2--7-7-7-7-5-5-5-5-| x2
Ab|-3-2-2--2--3-2-2--2---3-2-2--2--7-7-7-7-5-5-5-5-|
Eb|---0-0--0----0-0--0-----0-0--0--5-5-5-5-3-3-3-3-|

Verse
                    'Don't think...'
Eb|-2-2-2-2-2-2-2-2-2-2-2-2-2-2-2-2-0-0-0-0-0-0-0-0-0-0-0-0-0-0-0-0-|
Bb|-3-3-3-3-3-3-3-3-3-3-3-3-3-3-3-3-1-1-1-1-1-1-1-1-1-1-1-1-1-1-1-1-|
Gb|-2-2-2-2-2-2-2-2-2-2-2-2-2-2-2-2-2-2-2-2-2-2-2-2-2-2-2-2-2-2-2-2-|
Db|-0-0-0-0-0-0-0-0-0-0-0-0-0-0-0-0-2-2-2-2-2-2-2-2-2-2-2-2-2-2-2-2-|x4
Ab|---------------------------------0-0-0-0-0-0-0-0-0-0-0-0-0-0-0-0-|
Eb|-----------------------------------------------------------------|

Main Riff
Eb|--------0---------0----------0------------------|
Bb|--------0---------0----------0------------------|
Gb|-5------1--5------1---5------1------------------|
Db|-5-2-2--2--5-2-2--2---5-2-2--2--7-7-7-7-5-5-5-5-| x2
Ab|-3-2-2--2--3-2-2--2---3-2-2--2--7-7-7-7-5-5-5-5-|
Eb|---0-0--0----0-0--0-----0-0--0--5-5-5-5-3-3-3-3-|

Altered Main Riff
Eb|--------0---------0---------0------------------|
Bb|--------0---------0---------0------------------|
Gb|-5-5--5-1--5-5--5-1--5-5--5-1------------------|
Db|-5-5--5-2--5-5--5-2--5-5--5-2--7-7-7-7-5-5-5-5-| x2
Ab|-3-5bu3-2--3-5bu3-2--3-5bu3-2--7-7-7-7-5-5-5-5-|
Eb|--------0---------0---------0--5-5-5-5-3-3-3-3-|

Build Up
PM -----------------------------------------------------------------
Eb|-----------------------------------------------------------------|
Bb|-----------------------------------------------------------------|
Gb|-------------------------------------------9-----------9---------|
Db|-5-5-5-5-5-5-5-5-5-5-5-5-5-5-5-5/9-9-9-9-9-9-9-9-9-9-9-9-9-9-9-9-|x2
Ab|-3-3-3-3-3-3-3-3-3-3-3-3-3-3-3-3/7-7-7-7-7-7-7-7-7-7-7-7-7-7-7-7-|
Eb|-----------------------------------------------------------------|

Guitar 1 (Electric)
PM -----------------------------------------------------------------
Eb|-----------------------------------------------------------------|
Bb|-----------------------------------------------------------------|
Gb|-------------------------------------------9-----------9---------|
Db|-5-5-5-5-5-5-5-5-5-5-5-5-5-5-5-5/9-9-9-9-9-9-9-9-9-9-9-9-9-9-9-9-|x2
Ab|-3-3-3-3-3-3-3-3-3-3-3-3-3-3-3-3/7-7-7-7-7-7-7-7-7-7-7-7-7-7-7-7-|
Eb|-----------------------------------------------------------------|

Guitar 2 (Acoustic)
Eb|--------0~~~~~~~~----------------0----0--------------------------|
Bb|-1--1-1--------------------------0--0-0-0~~~---------------------|
Gb|-0--0-0--------------------------1--1-1--------------------------|
Db|-2--2-2--------------------------2--2----------------------------|x2
Ab|-3--3------------------------------------------------------------|
Eb|-----------------------------------------------------------------|

Guitar 1 (Electric)
PM -----------------------------------------------------------------
Eb|-----------------------------------------------------------------|
Bb|-----------------------------------------------------------------|
Gb|-------------------------------------------9-----------9---------|
Db|-5-5-5-5-5-5-5-5-5-5-5-5-5-5-5-5/9-9-9-9-9-9-9-9-9-9-9-9-9-9-9-9-|
Ab|-3-3-3-3-3-3-3-3-3-3-3-3-3-3-3-3/7-7-7-7-7-7-7-7-7-7-7-7-7-7-7-7-|
Eb|-----------------------------------------------------------------|

Guitar 2 (Acoustic)
Eb|-----0---------------------------0---0---------------------------|
Bb|-1-----1-------------------------0-----0-------------------------|
Gb|-0-------0~~~~~------------------1-------1~~~--------------------|
Db|-2-------------------------------2---------2---------------------|
Ab|-3-------------------------------2----------2--------------------|
Eb|-----------------------------------------------------------------|

Guitar 1 (Electric)
PM -----------------------------------------------------------------
Eb|-----------------------------------------------------------------|
Bb|-----------------------------------------------------------------|
Gb|-------------------------------------------9-----------9---------|
Db|-5-5-5-5-5-5-5-5-5-5-5-5-5-5-5-5/9-9-9-9-9-9-9-9-9-9-9-9-9-9-9-9-|
Ab|-3-3-3-3-3-3-3-3-3-3-3-3-3-3-3-3/7-7-7-7-7-7-7-7-7-7-7-7-7-7-7-7-|
Eb|-----------------------------------------------------------------|

Guitar 2 (Acoustic)
Eb|-----0---------------------------0-0-0---------------------------|
Bb|-1-1-1-1-1-1---------------------0-0-0-0-0-0-0-0-0-0-0-0-0-0-0-0-|
Gb|-0-0-0-0-0-0---------------------1-1-1-1-1-1-1-1-1-1-1-1-1-1-1-1-|
Db|-2-2-2-2-2-2---------------------2-2-2-2-2-2-2-2-2-2-2-2-2-2-2-2-|
Ab|-3-3-3-3-3-3---------------------2-2-2-2-2-2-2-2-2-2-2-2-2-2-2-2-|
Eb|-----------------------------------------------------------------|

Guitar 3 (Electric)
Eb|-----------------------------------------------------------------|
Bb|-----------------------------------------------------------------|
Gb|-----------------------------------------------------------------|
Db|-----------------------------------------------------------------|
Ab|-----------------------------------------------------------------|
Eb|----------------------------------------x\\\\\\\\\\\\\\\\\\\\\\\-|
                                               (Pic slide)

Heavier Part/Outro (Play Until end of song)
Guitar 1 (Electric)
Eb|-----------------------------------------------------------------|
Bb|-----------------------------------------------------------------|
Gb|-5-5-5-5-5-5-5-5-5-5-5-5-5-5-5-5-1-1-1-1-1-1-1-1-1-1-1-1-1-1-1-1-|
Db|-5-5-5-5-5-5-5-5-5-5-5-5-5-5-5-5-2-2-2-2-2-2-2-2-2-2-2-2-2-2-2-2-|
Ab|-3-3-3-3-3-3-3-3-3-3-3-3-3-3-3-3-2-2-2-2-2-2-2-2-2-2-2-2-2-2-2-2-|
Eb|---------------------------------0-0-0-0-0-0-0-0-0-0-0-0-0-0-0-0-|

Guitar 2 (Acoustic)
Eb|---------------------------------0-0-0-0-0-0-0-0-0-0-0-0-0-0-0-0-|
Bb|-1-1-1-1-1-1-1-1-1-1-1-1-1-1-1-1-0-0-0-0-0-0-0-0-0-0-0-0-0-0-0-0-|
Gb|-0-0-0-0-0-0-0-0-0-0-0-0-0-0-0-0-1-1-1-1-1-1-1-1-1-1-1-1-1-1-1-1-|
Db|-2-2-2-2-2-2-2-2-2-2-2-2-2-2-2-2-2-2-2-2-2-2-2-2-2-2-2-2-2-2-2-2-|
Ab|-3-3-3-3-3-3-3-3-3-3-3-3-3-3-3-3-2-2-2-2-2-2-2-2-2-2-2-2-2-2-2-2-|
Eb|-----------------------------------------------------------------|

End On
Eb|-3~~~~~-|
Bb|-3~~~~~-|
Gb|-5~~~~~-|
Db|-5~~~~~-|
Ab|-3~~~~~-|
Eb|-3~~~~~-|

End.

- - - - - - - - - - - - - - - - - - - - - - - - - - - - - - - - - - - - 

Track #13

Artist: The Subways
Song: At 1AM
Album: Young For Eternity
Tuning: Flats - Eb Ab Db Gb Bb Eb
Tabbed By James Morris

Intro
Eb|------------------------|
Bb|--------------xxxxxxx---|
Gb|-9-9-x-7-x-9--xxxxxxx---|
Db|-9-9-x-7-x-9--xxxxxxx---| x3
Ab|-7-7-x-5-x-7--xxxxxxx---|
Eb|------------------------|

Eb|-----------------|
Bb|-----------------|
Gb|-5-5-555---------|
Db|-5-5-555-5-5-555-|
Ab|-3-3-333-5-5-555-|
Eb|---------3-3-333-|

Verse
Eb|------------------------|
Bb|--------------xxxxxxx---|
Gb|-9-9-x-7-x-9--xxxxxxx---|
Db|-9-9-x-7-x-9--xxxxxxx---| x3
Ab|-7-7-x-5-x-7--xxxxxxx---|
Eb|------------------------|

Eb|-----------------|
Bb|-----------------|
Gb|-5-5-555---------|
Db|-5-5-555-5-5-555-|
Ab|-3-3-333-5-5-555-|
Eb|---------3-3-333-|

Eb|------------------------|
Bb|--------------xxxxxxx---|
Gb|-9-9-x-7-x-9--xxxxxxx---|
Db|-9-9-x-7-x-9--xxxxxxx---| x3
Ab|-7-7-x-5-x-7--xxxxxxx---|
Eb|------------------------|

Eb|-----------------|
Bb|-----------------|
Gb|-5-5-555---------|
Db|-5-5-555-5-5-555-|
Ab|-3-3-333-5-5-555-|
Eb|---------3-3-333-|

Chorus
Eb|-----------------------|
Bb|-----------------------|
Gb|-9-9-x-7-x-9-----------|
Db|-9-9-x-7-x-9--5-2-5-2--| x3
Ab|-7-7-x-5-x-7--5-2-5-2--|
Eb|--------------3-0-3-0--|


Eb|-----------------|
Bb|-----------------|
Gb|-5-5-555---------|
Db|-5-5-555-5-5-555-|
Ab|-3-3-333-5-5-555-|
Eb|---------3-3-333-|

Bridge
Eb|------------------------|
Bb|--------------xxxxxxx---|
Gb|-9-9-x-7-x-9--xxxxxxx---|
Db|-9-9-x-7-x-9--xxxxxxx---| x3
Ab|-7-7-x-5-x-7--xxxxxxx---|
Eb|------------------------|

Eb|-----------------|
Bb|-----------------|
Gb|-5-5-555---------|
Db|-5-5-555-5-5-555-|
Ab|-3-3-333-5-5-555-|
Eb|---------3-3-333-|

Verse
Eb|------------------------|
Bb|--------------xxxxxxx---|
Gb|-9-9-x-7-x-9--xxxxxxx---|
Db|-9-9-x-7-x-9--xxxxxxx---| x3
Ab|-7-7-x-5-x-7--xxxxxxx---|
Eb|------------------------|

Eb|-----------------|
Bb|-----------------|
Gb|-5-5-555---------|
Db|-5-5-555-5-5-555-|
Ab|-3-3-333-5-5-555-|
Eb|---------3-3-333-|

Eb|------------------------|
Bb|--------------xxxxxxx---|
Gb|-9-9-x-7-x-9--xxxxxxx---|
Db|-9-9-x-7-x-9--xxxxxxx---| x3
Ab|-7-7-x-5-x-7--xxxxxxx---|
Eb|------------------------|

Eb|-----------------|
Bb|-----------------|
Gb|-5-5-555---------|
Db|-5-5-555-5-5-555-|
Ab|-3-3-333-5-5-555-|
Eb|---------3-3-333-|

Chorus
Eb|-----------------------|
Bb|-----------------------|
Gb|-9-9-x-7-x-9-----------|
Db|-9-9-x-7-x-9--5-2-5-2--| x3
Ab|-7-7-x-5-x-7--5-2-5-2--|
Eb|--------------3-0-3-0--|
	
Eb|-----------------|
Bb|-----------------|
Gb|-5-5-555---------|
Db|-5-5-555-5-5-555-|
Ab|-3-3-333-5-5-555-|
Eb|---------3-3-333-|

Post Chorus
Eb|-----------------------|
Bb|-----------------------|
Gb|-9-9-x-7-x-9-----------|
Db|-9-9-x-7-x-9--5-2-5-2--| x3
Ab|-7-7-x-5-x-7--5-2-5-2--|
Eb|--------------3-0-3-0--|
	
Eb|-----------------|
Bb|-----------------|
Gb|-5-5-555---------|
Db|-5-5-555-5-5-555-|
Ab|-3-3-333-5-5-555-|
Eb|---------3-3-333-|

Interlude 
    'At 1AM     At 1AM'
Eb|------------------------|
Bb|--------------xxxxxxx---|
Gb|-9-9-x-7-x-9--xxxxxxx---|
Db|-9-9-x-7-x-9--xxxxxxx---| x3
Ab|-7-7-x-5-x-7--xxxxxxx---|
Eb|------------------------|
   'Got this Feelin'
Eb|-----------------|
Bb|-----------------|
Gb|-5-5-555---------|
Db|-5-5-555-5-5-555-|
Ab|-3-3-333-5-5-555-|
Eb|---------3-3-333-|
   'Got this Feeling'
Eb|------------------------|
Bb|------------------------|
Gb|-9-9-x-7-x-9----4bu-----|
Db|-9-9-x-7-x-9------------| 
Ab|-7-7-x-5-x-7------------|
Eb|------------------------|

Eb|------------------------|
Bb|--------------xxxxxxx---|
Gb|-9-9-x-7-x-9--xxxxxxx---|
Db|-9-9-x-7-x-9--xxxxxxx---| x2
Ab|-7-7-x-5-x-7--xxxxxxx---|
Eb|------------------------|

Eb|-----------------|
Bb|-----------------|
Gb|-5-5-555---------|
Db|-5-5-555-5-5-555-|
Ab|-3-3-333-5-5-555-|
Eb|---------3-3-333-|

Outro
Eb|---------------|
Bb|---------------|
Gb|-9-9-x-7-x-9---|
Db|-9-9-x-7-x-9---| 
Ab|-7-7-x-5-x-7---|
Eb|---------------|

End.

================================END====================================

That is the whole of Young For Eternity by The Subways. I am sure that
most of the tabs are correct, but if there are any mistakes, please correct.
Thanks. Rate and comment.
comments
print report bad tab
5 comments total. Showing first comments.
0 reply
BI9_emu wrote on September 25 2005, 09:24 am

Great tab

0 reply
dan121212 wrote on February 12 2006, 02:24 pm

ive seen that uve tabbed like all the subways tabs good 1 do u av liek loads of free time ?

0 reply
DisfunktionNL wrote on October 31 2006, 06:08 pm

Most songs could have been played in standard tuning actually

I want to post or [tab]
guest
You may want to rate the tab now too:
select rating
Please do not post tabs as comments. Select "correction" instead!