Oops, an error
Loading. Please wait.

Love Is All Tab

ver2
ver2

Whole song

More versions @911Tabs.com
133,899 views 703 this week
6 commentsread comments
1 2 3 4 5
excellent!
x 41
add to favorites launch autoscroll
font size
0
reset
Autoscroll
+/-
esc
set tempo
stop
Contributor
Difficulty
advanced
WARNING: You are trying to view
                                    content from Ultimate-Guitar.com
                                    in an unauthorized application,
                                    which is prohibited.

                                    Please use an official Ultimate
                                    Guitar Tabs application for iPhone,
                                    iPad or Android to access legitimate
                                    chords, guitar, bass, and drum tabs
                                    from Ultimate-Guitar.com database.

                                    Type "ultimate guitar tabs" in Apple
                                    App Store's or Android Market's
                                    search to find the application.
Capo on the 7th fret... The high E string is tuned down to a D. This is one of my 
favorite songs, so enjoy...

Jake Miller

d|--------------------------------------------------------------------------|
B|-----------0---------------0---------------0---------------0--------------|
G|------------0---------------0---------------0---------------0-------------|
D|-----2-------2-------2-------2-------2-------2-------2-------2------------|
A|--------------------------------------------------------------------------|
E|-0-------0-------0-------0-------0-------0-------0-------0----------------|

d|--------------------------------------------------------------------------------|
B|-----------0---------------0---------------0---------------1--------------1-----|
G|-------0-------0-------0-------0-------0-------0-------0-------0-------0-------0|
D|-----2-------2-------0-------0-------0-------0-------2-------2-------2-------2--|
A|--------------------------------------------------------------------------------|
E|-0-------0-------2-------2-------3-------3-------3-------3-------3-------3------|

d|--------------------------------------------------------------------------------|
B|-----------1-----0---------0-----0---------0---------------0---------------0----|
G|-------0-------0-------0-------0-------0-------0-------0-------0-------2-------0|
D|-----2-------2-------0-------0-------0-------0-------2-------2-------0-------0--|
A|--------------------------------------------------------------------------------|
E|-3-------3-------3-------3-------3-------3-------0-------0-------2-------2------|

d|--------------------------------------------------------------------------|
B|-----1---1p0-------0-----3p0---------1---1p0---------------0--------------|
G|---------------0-------0-------0h2-------------0-------0----0-------------|
D|-----2-------0-------0-------0-------0-------0-------0-------0------------|
A|--------------------------------------------------------------------------|
E|-3-------3-------3-------3-------2-------2-------3-------3----------------|

d|------------------------------------------------------------------------------|
B|-----1---1p0-------0-----3p0---------1---1p0---------------0---------------0--|
G|---------------0-------0-------0h2-------------0-------0----0----------0------|
D|-----2-------0-------0-------0-------0-------0-------0-------0-------0-------0|
A|------------------------------------------------------------------------------|
E|-3-------3-------3-------3-------2-------2-------3-------3-------3-------3----|

  I walk upon this river like its easier than land
d|-----------------------------------------------------------------------0--------|
B|-----------0---------------0---------------0---------------1-----0h1------------|
G|-------0-------0-------0-------0-------0-------0-----0---------0-----------0----|
D|-----2-------2-------0-------0-------0-------0-------2-------2-------2-------2--|
A|--------------------------------------------------------------------------------|
E|-0-------0-------2-------2-------3-------3-------3-------3-------3-------3------|

  Evils in my pocket and your will is in my hand oh your will is in my
d|--------------------------------------------------------------------------------|
B|-----------1-----0---------0---------------0---------------0---------------0----|
G|-------0-------0-------0-------0-------0-------0-------0-------0-------2-------0|
D|-----2-------2-------0-------0-------0-------0-------2-------2-------0-------0--|
A|--------------------------------------------------------------------------------|
E|-3-------3-------3-------3-------3-------2-------0-------0-------2-------2------|

  Ha-a-a-and
d|--------------------------------------------------------------------------|
B|-----1---1p0-------0-----3p0---------1---1p0---------------0--------------|
G|---------------0-------0-------0h2-------------0-------0----0-------------|
D|-----2-------0-------0-------0-------0-------0-------0-------0------------|
A|--------------------------------------------------------------------------|
E|-3-------3-------3-------3-------2-------2-------3-------3----------------|

d|------------------------------------------------------------------------------|
B|-----1---1p0-------0-----3p0---------1---1p0---------------0---------------0--|
G|---------------0-------0-------0h2-------------0-------0----0----------0------|
D|-----2-------0-------0-------0-------0-------0-------0-------0-------0-------0|
A|------------------------------------------------------------------------------|
E|-3-------3-------3-------3-------2-------2-------3-------3-------3-------3----|

  Now I throw it in the current that I stand up on so still
d|-----------------------------------------------------------------------0--------|
B|-----------0---------------0---------------0---------------1-----0h1------------|
G|-------0-------0-------0-------0-------0-------0-----0---------0-----------0----|
D|-----2-------2-------0-------0-------0-------0-------2-------2-------2-------2--|
A|--------------------------------------------------------------------------------|
E|-0-------0-------2-------2-------3-------3-------3-------3-------3-------3------|

Love is all from what ive heard but my hearts learned to kill oh mine has learned
d|--------------------------------------------------------------------------------|
B|-----------1-----0---------0---------------0---------------0---------------0----|
G|-------0-------0-------0-------0-------0-------0-------0-------0-------2-------0|
D|-----2-------2-------0-------0-------0-------0-------2-------2-------0-------0--|
A|--------------------------------------------------------------------------------|
E|-3-------3-------3-------3-------3-------2-------0-------0-------2-------2------|

To ki-i-i-ill
d|--------------------------------------------------------------------------|
B|-----1---1p0-------0-----3p0---------1---1p0---------------0--------------|
G|---------------0-------0-------0h2-------------0-------0----0-------------|
D|-----2-------0-------0-------0-------0-------0-------0-------0------------|
A|--------------------------------------------------------------------------|
E|-3-------3-------3-------3-------2-------2-------3-------3----------------|

d|-------------------------------------------------0------------------------|
B|-----1---1p0-------0-----3p0---------------0-----------0------------------|
G|---------------0-------0-------0h2---2---------2-----------2--------------|
D|-----2-------0-------0-------0-------0-------0-------0-------0------------|
A|--------------------------------------------------------------------------|
E|-3-------3-------3-------3-------2-------2-------2-------2----------------|

  Oh I said I could rise
d|------------------0-------------------------------------------------------|
B|------------0-----------0-------------------0-----1p0-------0-------------|
G|------2---------2-----------2---------0---------0-------0-----------------|
D|------0-------0-------0-------0-------0-------0-------0-------0-----------|
A|--------------------------------------------------------------------------|
E|-2--------2-------2-------2-------3-------3-------3-------3---------------|

    From the harness of our goals Here come the
d|-------------------------------------------------0------------------------|
B|-1---------0-----1---------1---------------0-----------0------------------|
G|-------0-------0-------2-------------2---------2-----------2--------------|
D|-----2-------0-------2-------2-------0-------0-------0-------0------------|
A|-3-------2-------0-------0------------------------------------------------|
E|---------------------------------2-------2-------2-------2----------------|

  Tears but like always I let them
d|-----------0-----------0-------------------------0------------------------|
B|-----0h1---------0h1-----------------------0-----------0------------------|
G|---------------2-----------2---------2---------2-----------2--------------|
D|-----2-------2-------2-------2-------0-------0-------0-------0------------|
A|--------------------------------------------------------------------------|
E|-0-------0-------0-------0-------2-------2-------2-------2----------------|

  Go-a-a-oh                                     just let them go
d|--------------------------------------------------------------------------|
B|-----1---1p0-------0-----3p0---------1---1p0---------------0--------------|
G|---------------0-------0-------0h2-------------0-------0----0-------------|
D|-----2-------0-------0-------0-------0-------0-------0-------0------------|
A|--------------------------------------------------------------------------|
E|-3-------3-------3-------3-------2-------2-------3-------3----------------|

d|------------------------------------------------------------------------------|
B|-----1---1p0-------0-----3p0---------1---1p0---------------0---------------0--|
G|---------------0-------0-------0h2-------------0-------0----0----------0------|
D|-----2-------0-------0-------0-------0-------0-------0-------0-------0-------0|
A|------------------------------------------------------------------------------|
E|-3-------3-------3-------3-------2-------2-------3-------3-------3-------3----|

  Now spikes will keep them falling from the heavens to the floor
d|-----------------------------------------------------------------------0--------|
B|-----------0---------------0---------------0---------------1-----0h1------------|
G|-------0-------0-------0-------0-------0-------0-----0---------0-----------0----|
D|-----2-------2-------0-------0-------0-------0-------2-------2-------2-------2--|
A|--------------------------------------------------------------------------------|
E|-0-------0-------2-------2-------3-------3-------3-------3-------3-------3------|

  Future was our skin and now we dont dream anymore no we dont dream any
d|--------------------------------------------------------------------------------|
B|-----------1-----0---------0---------------0---------------0---------------0----|
G|-------0-------0-------0-------0-------0-------0-------0-------0-------2-------0|
D|-----2-------2-------0-------0-------0-------0-------2-------2-------0-------0--|
A|--------------------------------------------------------------------------------|
E|-3-------3-------3-------3-------3-------2-------0-------0-------2-------2------|

  Mo-a-a-ore
d|--------------------------------------------------------------------------|
B|-----1---1p0-------0-----3p0---------1---1p0---------------0--------------|
G|---------------0-------0-------0h2-------------0-------0----0-------------|
D|-----2-------0-------0-------0-------0-------0-------0-------0------------|
A|--------------------------------------------------------------------------|
E|-3-------3-------3-------3-------2-------2-------3-------3----------------|

d|------------------------------------------------------------------------------|
B|-----1---1p0-------0-----3p0---------1---1p0---------------0---------------0--|
G|---------------0-------0-------0h2-------------0-------0----0----------0------|
D|-----2-------0-------0-------0-------0-------0-------0-------0-------0-------0|
A|------------------------------------------------------------------------------|
E|-3-------3-------3-------3-------2-------2-------3-------3-------3-------3----|

  Our house was made from spider webs and the clouds were rolling in
d|-----------------------------------------------------------------------0--------|
B|-----------0---------------0---------------0---------------1-----0h1------------|
G|-------0-------0-------0-------0-------0-------0-----0---------0-----------0----|
D|-----2-------2-------0-------0-------0-------0-------2-------2-------2-------2--|
A|--------------------------------------------------------------------------------|
E|-0-------0-------2-------2-------3-------3-------3-------3-------3-------3------|

 I bet this mighty rivers both my savior and my sin oh my savior and my
d|--------------------------------------------------------------------------------|
B|-----------1-----0---------0---------------0---------------0---------------0----|
G|-------0-------0-------0-------0-------0-------0-------0-------0-------2-------0|
D|-----2-------2-------0-------0-------0-------0-------2-------2-------0-------0--|
A|--------------------------------------------------------------------------------|
E|-3-------3-------3-------3-------3-------2-------0-------0-------2-------2------|

  Si-i-i-in
d|--------------------------------------------------------------------------|
B|-----1---1p0-------0-----3p0---------1---1p0---------------0--------------|
G|---------------0-------0-------0h2-------------0-------0----0-------------|
D|-----2-------0-------0-------0-------0-------0-------0-------0------------|
A|--------------------------------------------------------------------------|
E|-3-------3-------3-------3-------2-------2-------3-------3----------------|

d|-------------------------------------------------0------------------------|
B|-----1---1p0-------0-----3p0---------------0-----------0------------------|
G|---------------0-------0-------0h2---2---------2-----------2--------------|
D|-----2-------0-------0-------0-------0-------0-------0-------0------------|
A|--------------------------------------------------------------------------|
E|-3-------3-------3-------3-------2-------2-------2-------2----------------|

  Oh I said I could rise
d|------------------0-------------------------------------------------------|
B|------------0-----------0-------------------0-----1p0-------0-------------|
G|------2---------2-----------2---------0---------0-------0-----------------|
D|------0-------0-------0-------0-------0-------0-------0-------0-----------|
A|--------------------------------------------------------------------------|
E|-2--------2-------2-------2-------3-------3-------3-------3---------------|

    From the harness of our goals Here come the
d|-------------------------------------------------0------------------------|
B|-1---------0-----1---------1---------------0-----------0------------------|
G|-------0-------0-------2-------------2---------2-----------2--------------|
D|-----2-------0-------2-------2-------0-------0-------0-------0------------|
A|-3-------2-------0-------0------------------------------------------------|
E|---------------------------------2-------2-------2-------2----------------|

  Tears but like always I let them
d|-----------0-----------0-------------------------0------------------------|
B|-----0h1---------0h1-----------------------0-----------0------------------|
G|---------------2-----------2---------2---------2-----------2--------------|
D|-----2-------2-------2-------2-------0-------0-------0-------0------------|
A|--------------------------------------------------------------------------|
E|-0-------0-------0-------0-------2-------2-------2-------2----------------|

  Go-a-a-oh                                        just let them go
d|--------------------------------------------------------------------------|
B|-----1---1p0-------0-----3p0---------1---1p0---------------0--------------|
G|---------------0-------0-------0h2-------------0-------0----0-------------|
D|-----2-------0-------0-------0-------0-------0-------0-------0------------|
A|--------------------------------------------------------------------------|
E|-3-------3-------3-------3-------2-------2-------3-------3----------------|

d|-----------------------------------------------------4/5---0--------------|
B|-----1---1p0-------0-----3p0---------1-----0---------4/5---0--------------|
G|---------------0-------0-------0h2---------------0-------------0----------|
D|-----2-------0-------0-------0-------0-------0----------------------------|
A|--------------------------------------------------------------------------|
E|-3-------3-------3-------3-------2-------2-------0------------------------|

d|-------------------------2p0----------------------------------------------|
B|-----1---1p0-------0-----------------1---1p0---------------0--------------|
G|---------------0-------0-------0h2-------------0-------0----0-------------|
D|-----2-------0-------0-------0-------0-------0-------0-------0------------|
A|--------------------------------------------------------------------------|
E|-3-------3-------3-------3-------2-------2-------3-------3----------------|

d|------------------------------------------------------------------------------|
B|-----1---1p0-------0-----3p0---------------0---------------0-----------1p0----|
G|---------------0-------0-------0h2-----2---------------------------0----------|
D|-----2-------0-------0-------0-------0-------0-------0-------0-------0-------0|
A|------------------------------------------------------------------------------|
E|-3-------3-------3-------3-------2-------2-------3-------3-------3-------3----|

d|-------------------------------------------------0------------------------|
B|-----1---1p0-------0-----3p0---------------0-----------0------------------|
G|---------------0-------0-------0h2---2---------2-----------2--------------|
D|-----2-------0-------0-------0-------0-------0-------0-------0------------|
A|--------------------------------------------------------------------------|
E|-3-------3-------3-------3-------2-------2-------2-------2----------------|

 Well I walk upon this river like its easier than land
d|-----------------------------------------------------------------------0--------|
B|-----------0---------------0---------------0---------------1-----0h1------------|
G|-------0-------0-------0-------0-------0-------0-----0---------0-----------0----|
D|-----2-------2-------0-------0-------0-------0-------2-------2-------2-------2--|
A|--------------------------------------------------------------------------------|
E|-0-------0-------2-------2-------3-------3-------3-------3-------3-------3------|

  Evils in my pocket and your strength is in my hand oh your strength is in my
d|--------------------------------------------------------------------------------|
B|-----------1-----0---------0---------------0---------------0---------------0----|
G|-------0-------0-------0-------0-------0-------0-------0-------0-------2-------0|
D|-----2-------2-------0-------0-------0-------0-------2-------2-------0-------0--|
A|--------------------------------------------------------------------------------|
E|-3-------3-------3-------3-------3-------2-------0-------0-------2-------2------|

  Ha-a-a-and
d|--------------------------------------------------------------------------|
B|-----1---1p0-------0-----3p0---------1---1p0---------------0--------------|
G|---------------0-------0-------0h2-------------0-------0----0-------------|
D|-----2-------0-------0-------0-------0-------0-------0-------0------------|
A|--------------------------------------------------------------------------|
E|-3-------3-------3-------3-------2-------2-------3-------3----------------|

d|------------------------------------------------------------------------------|
B|-----1---1p0-------0-----3p0---------1---1p0---------------0---------------0--|
G|---------------0-------0-------0h2-------------0-------0----0----------0------|
D|-----2-------0-------0-------0-------0-------0-------0-------0-------0-------0|
A|------------------------------------------------------------------------------|
E|-3-------3-------3-------3-------2-------2-------3-------3-------3-------3----|

  Now I throw it in the current that I stand up on so still
d|-----------------------------------------------------------------------0--------|
B|-----------0---------------0-------------------------------1-----0h1------------|
G|-------0-------0-------0-------0---------------------0---------0-----------0----|
D|-----2-------2-------0-------0-----------------------2-------2-------2-------2--|
A|--------------------------------------------------------------------------------|
E|-0-------0-------2-------2-------3---------------3-------3-------3-------3------|

Love is all from what ive heard but my hearts learned to kill oh mine has learned
d|--------------------------------------------------------------------------------|
B|-----------1-----0---------0---------------0---------------0---------------0----|
G|-------0-------0-------0-------0-------0-------0-------0-------0-------2-------0|
D|-----2-------2-------0-------0-------0-------0-------2-------2-------0-------0--|
A|--------------------------------------------------------------------------------|
E|-3-------3-------3-------3-------3-------2-------0-------0-------2-------2------|

To ki-i-i-ill
d|--------------------------------------------------------------------------|
B|-----1---1p0-------0-----3p0---------1---1p0---------------0--------------|
G|---------------0-------0-------0h2-------------0-------0----0-------------|
D|-----2-------0-------0-------0-------0-------0-------0-------0------------|
A|--------------------------------------------------------------------------|
E|-3-------3-------3-------3-------2-------2-------3-------3----------------|

d|-------------------------------------------------0------------------------|
B|-----1---1p0-------0-----3p0---------------0-----------0------------------|
G|---------------0-------0-------0h2---2---------2-----------2--------------|
D|-----2-------0-------0-------0-------0-------0-------0-------0------------|
A|--------------------------------------------------------------------------|
E|-3-------3-------3-------3-------2-------2-------2-------2----------------|

  Oh I said I could rise
d|------------------0-------------------------------------------------------|
B|------------0-----------0-------------------0-----1p0-------0-------------|
G|------2---------2-----------2---------0---------0-------0-----------------|
D|------0-------0-------0-------0-------0-------0-------0-------0-----------|
A|--------------------------------------------------------------------------|
E|-2--------2-------2-------2-------3-------3-------3-------3---------------|

    From the harness of our goals Here come the
d|-------------------------------------------------0------------------------|
B|-1---------0-----1---------1---------------0-----------0------------------|
G|-------0-------0-------2-------------2---------2-----------2--------------|
D|-----2-------0-------2-------2-------0-------0-------0-------0------------|
A|-3-------2-------0-------0------------------------------------------------|
E|---------------------------------2-------2-------2-------2----------------|

  Tears but like always I let them
d|-----------0-----------0-------------------------0------------------------|
B|-----0h1---------0h1-----------------------0-----------0------------------|
G|---------------2-----------2---------2---------2-----------2--------------|
D|-----2-------2-------2-------2-------0-------0-------0-------0------------|
A|--------------------------------------------------------------------------|
E|-0-------0-------0-------0-------2-------2-------2-------2----------------|

  Go-a-a-oh                                      just let them go
d|--------------------------------------------------------------------------|
B|-----1---1p0-------0-----3p0---------1---1p0---------------0--------------|
G|---------------0-------0-------0h2-------------0-------0----0-------------|
D|-----2-------0-------0-------0-------0-------0-------0-------0------------|
A|--------------------------------------------------------------------------|
E|-3-------3-------3-------3-------2-------2-------3-------3----------------|

d|--------------------------------------------------------------------------|
B|-----1---1p0-------0-----3p0---------1---1p0---------------0--------------|
G|---------------0-------0-------0h2-------------0-------0----0-------------|
D|-----2-------0-------0-------0-------0-------0-------0-------0------------|
A|--------------------------------------------------------------------------|
E|-3-------3-------3-------3-------2-------2-------3-------3----------------|

d|-------------------------2p0----------------------------------------------|
B|-----1---1p0-------0-----------------1---1p0---------------0--------------|
G|---------------0-------0-------0h2-------------0-------0----0-------------|
D|-----2-------0-------0-------0-------0-------0-------0-------0------------|
A|--------------------------------------------------------------------------|
E|-3-------3-------3-------3-------2-------2-------3-------3----------------|

d|--------------------------------------------------------------------------|
B|-----1---1p0-------0-----3p0---------1---1p0---------------0--------------|
G|---------------0-------0-------0h2-------------0-------0----0-------------|
D|-----2-------0-------0-------0-------0-------0-------0-------0------------|
A|--------------------------------------------------------------------------|
E|-3-------3-------3-------3-------2-------2-------3-------3----------------|

d|------------------------------------------------------------------------|
B|--1-------1-------0-------0-------0--------0------0-------0-------------|
G|---0-------0-------0-------0-------2--------2------0-------0------------|
D|-----2-------2-------0-------0-------0-------0-------0-------0----------|
A|------------------------------------------------------------------------|
E|-3-------3-------3-------3-------2-------2-------3-------3--------------|

d|--------------------------------------------------------------------------|
B|-----1---1p0-------0-----3p0---------1---1p0---------------0--------------|
G|---------------0-------0-------0h2-------------0-------0----0-------------|
D|-----2-------0-------0-------0-------0-------0-------0-------0------------|
A|--------------------------------------------------------------------------|
E|-3-------3-------3-------3-------2-------2-------3-------3----------------|

d|--------------------------------------------------------------------------|
B|-----1---1p0-------0-----3p0---------1---1p0---------------0--------------|
G|---------------0-------0-------0h2-------------0-------0----0-------------|
D|-----2-------0-------0-------0-------0-------0-------0-------0------------|
A|--------------------------------------------------------------------------|
E|-3-------3-------3-------3-------2-------2-------3-------3----------------|

d|-------------------------2p0----------------------------------------------|
B|-----1---1p0-------0-----------------1---1p0---------------0--------------|
G|---------------0-------0-------0h2-------------0-------0----0-------------|
D|-----2-------0-------0-------0-------0-------0-------0-------0------------|
A|--------------------------------------------------------------------------|
E|-3-------3-------3-------3-------2-------2-------3-------3----------------|

d|--------------------------------------------------------------------------|
B|-----1---1p0-------0-----3p0---------1---1p0---------------0--------------|
G|---------------0-------0-------0h2-------------0-------0----0-------------|
D|-----2-------0-------0-------0-------0-------0-------0-------0------------|
A|--------------------------------------------------------------------------|
E|-3-------3-------3-------3-------2-------2-------3-------3----------------|
comments
print report bad tab
6 comments total. Showing first comments.
+5 reply
JohnnyDevil wrote on October 13 2011, 03:37 pm

Damn good job friend. One of my favorites also... thanks for this.

One piece of advice to people learning this tab: Ignore the hammer-on to the G string at the end of each verse (ha-a-a-nd); this will happen naturally if you switch chords with conviction. If you try to fit it into the pattern while you're learning the tab it will give you hell. I'm not sure I would have even notated it, but it definitely is very accurate.

0 reply
TJarnold92 wrote on March 27 2012, 05:02 pm

In all honesty, there's no point in playing this outside of Standard tuning.

The parts where you have to use the high-E string (which is always an open note) you could easily (and I do find it easier to play it like this) do with a hammer-on to 4 on the B string.

0 reply
spartanfan10 wrote on April 1 2012, 11:08 pm

This is fantastic. Thanks so much.

I want to post or [tab]
guest
You may want to rate the tab now too:
select rating
Please do not post tabs as comments. Select "correction" instead!