Oops, an error
Loading. Please wait.

The Gardner Tab

ver2
ver2

Whole song

More versions @911Tabs.com
4,723 views 18 this week
no commentswrite comment
1 2 3 4 5
accurate
x 3
Autoscroll
+/-
esc
set tempo
stop
Contributor
Difficulty
Tuning
intermediate
D A D F# A D
Hey! There's an official Ultimate Guitar app which is ideal
for learning songs when you're away from computer. Get the app
WARNING: You are trying to view
                                    content from Ultimate-Guitar.com
                                    in an unauthorized application,
                                    which is prohibited.

                                    Please use an official Ultimate
                                    Guitar Tabs application for iPhone,
                                    iPad or Android to access legitimate
                                    chords, guitar, bass, and drum tabs
                                    from Ultimate-Guitar.com database.

                                    Type "ultimate guitar tabs" in Apple
                                    App Store's or Android Market's
                                    search to find the application.
Tallest man on Earth - The Gardner
Tabbed by GruxxoFlux


Tuning: DADF#AD
Capo: 6

This is in my opinion the best sounding version of this song. 
I'm sorry the tab isn't very explaining, but listen to the song, 
or watch the youtube clip and you'll get the grip.
Youtube video which i tabbed it from: (thanks to MrMikecurley)
http://www.youtube.com/watch?v=rGJfTyyWcfY


Intro
D -------0------------|
A -------0------------|
E -3--3--0------------|
D -------0--2--4------|
A -2--0--0------------|
D -x--0--0------------|
   ^x2   ^x4
   

VERSE (part 1)

I sense a runner in the garden ... Although my judgements known to fail
Once built a steamboat in a meadow, Cos I'd forgotten       how to sail
D 0-------0-------------0-------0---0------------------------------0-5-4-|
A 0-------0-------------0-------0---2------------------------------0-0-0|
E 0-------0-------------0-------3---1------------------------------3-3-3|
D 0-------0-------------0-------0---0------------------------------2-2-2|
A 0-------4-------------2-------2---2------------------------------0-0-0|
D 0-------0-------------0-------0---x------------------------------x-x-x|


VERSE (part 2)

I know the runner's going to tell you.....There ain't no cowboy in my hair
0--------0-----------------0---------0--0--0--------------------------0-0-0|
2--------0-----------------0---------0--0--2--------------------------0-0-0|
1--------3-----------------0---------0--0--1--------------------------0-0-0|
0--------2-----------------0---------2--4--0--------------------------0-2-4|
2--------0-----------------0---------0--0--2--------------------------0-0-0|
x--------0-----------------0---------0--0--x--------------------------0-0-0|
         


So now he's buried by the daisies So I could stay the tallest man in your eyes, babe
0--------0-----------------0---------0--0---0-----------------0-----------------0--|
2--------0-----------------0---------0--0---2-----------------0-----------------0--|
1--------3-----------------0---------0--0---1-----------------3-----------------0--|
0--------?-----------------0---------2--4---0-----------------2-----------------0--|
2--------?-----------------0---------0--0---2-----------------0-----------------0--|
x--------0-----------------0---------0--0---x-----------------0-----------------0--|


Last part of VERSE 3

stay the king you see In your eyes, babe......In your eyes, babe.........In your...
0-----------------0-----------------0-----------------------0----------------------|
2-----------------0-----------------0-----------------------0----------------------|
1-----------------3-----------------0----------2------------0----------2-----------|
0-----------------2-----------------0---2--4----------------0---2--4---------------|
2-----------------0-----------------0----------3------------0----------3-----------|
x-----------------0-----------------0-----------------------0----------------------|

Into the BRIDGE

0----x
x----5
x----x
0-or-0
5----5
0----0
just play this several times, listen to song or youtube clip.
And then it's the last verse, and fin.


LYRICS:


I sense a runner in the garden
Although my judgements known to fail
Once built a steamboat in a meadow
Cos I'd forgotten how to sail

I know the runner's going to tell you
There ain't no cowboy in my hair
So now he's buried by the daisies
So I could stay the tallest man in your eyes, babe

I sense a spy up in the chimney
From all the evidence I've burned
I guess he'll read it in the smoke now
And soon to ashes I'll return

I know the spy is going to tell you
It's not my flag up in the pole
So now he's buried by the lilies
So I could stay forever more in your eyes, babe

I sense a leak inside my phone now
From all the lies I have told
I know he has your private number
And soon he'll make that vicious call

I know the leak is going to tell you
There ain't no puppy in your leash
So now he'll fertilize the roses
So I could stay the king you see
In your eyes, babe (x2)

So now we're dancing through the garden
And what a garden I have made
And now that death will grow my jasmine
I find it soothing I'm afraid

Now there is no need for suspicion
There ain't no frog kissing your hand
I won't be lying when I tell you
That I'm a gardner I'm a man
In your eyes babe (x3)
comments
We did not receive enough feedback on this tab! Please rate:
print report bad tab
1 2 3 4 5
I want to post or [tab]
guest
You may want to rate the tab now too:
select rating
Please do not post tabs as comments. Select "correction" instead!