Oops, an error
Loading. Please wait.

Conditions Bass Tab

1,627 views 3 this week
no commentswrite comment
1 2 3 4 5
excellent!
x 5
Autoscroll
+/-
esc
set tempo
stop
Contributor
Hey! There's an official Ultimate Guitar app which is ideal
for learning songs when you're away from computer. Get the app
WARNING: You are trying to view
                                    content from Ultimate-Guitar.com
                                    in an unauthorized application,
                                    which is prohibited.

                                    Please use an official Ultimate
                                    Guitar Tabs application for iPhone,
                                    iPad or Android to access legitimate
                                    chords, guitar, bass, and drum tabs
                                    from Ultimate-Guitar.com database.

                                    Type "ultimate guitar tabs" in Apple
                                    App Store's or Android Market's
                                    search to find the application.
 The Temper Trap
 Conditions

 1.Love Lost
 2.Rest
 3.Sweet Disposition
 4.Down River
 5.Soldier On
 6.Fader
 7.Fools
 8.Resurrection
 9.Science Of Fear
 10.Drum Song


===============================================================================

 

-------------------------------------------------------------------------------
 1.		              Love Lost 
-------------------------------------------------------------------------------


 Chorus x2 (0.48)
G|-----------------------------------------|
D|-----------------------------------------|
A|22222222----------55555555-55555555------|
E|---------33333333------------------------|

 x2
G|---2-4-----------------|
D|-----------------------|
A|2~-----------/5~-------|
E|-------3~--------------|

 Pause

 Chorus x4

 Pause

 Chorus (2.21 - 3.06)

 x2
G|---2-4-----------------|
D|-----------------------|
A|2~-----------/5~-------|
E|-------3~--------------|

===============================================================================

-------------------------------------------------------------------------------
 2.			       Rest 
-------------------------------------------------------------------------------

 Chorus (0.37)
G|---------------------------------------------------------------------------|
D|---------------------------------------------------------------------------|
A|22222222222222222222222222222222-----777-5-----777-5-----777-5-----777-5---|
E|---------------------------------000-------000-------000-------000---------|

G|---------------------------------------------------------------------------|
D|---------------------------------------------------------------------------|
A|-------------------------------------777-5-----777-5-----777-5-----777-5---|
E|33333333333333333333333333333333-000-------000-------000-------000---------|

G|----------|
D|----------|
A|5~--------|
E|----------|

 Verse (1.12)
G|999-77--------999-77--------999-77-----------|
D|---------------------------------------------|
A|---------------------------------------------|
E|---------------------------------------------|

 Chorus x2

G|----------|
D|----------|
A|5~--------|
E|----------|

 x2
G|---------------------------------------------------------------|
D|---------------------------------------------------------------|
A|5555555555555555555555-5h77-22222222222222222222222222222222---|
E|---------------------------------------------------------------|

 Chorus
G|--------------------------------------------------------------------------------|
D|----7/999-----7/999----7/999-----2/999------------------------------------------|
A|222-------222-------22-------222-----------777-5-----777-5-----777-5-----777-5--|
E|---------------------------------------000-------000-------000-------000--------|

G|-------------------------------------------------------------------------------|
D|----/555-----/555-----/555-----/555--------------------------------------------|
A|----------------------------------------777-5-----777-5-----777-5-----777-5----|
E|333------333------333------333------000-------000-------000-------000----------|

G|---------------------------------------------------------------------------|
D|---------------------------------------------------------------------------|
A|22222222222222222222222222222222-----777-5-----777-5-----777-5-----777-5---|
E|---------------------------------000-------000-------000-------000---------|

G|-----------------------------------------------------------------------|
D|----/555-----/555-----/555-----/555------------------------------------|
A|-----------------------------------------------------------------------|
E|333------333------333------333------00000000000000000000000000000000---|


G|----------|
D|----------|
A|5~--------|
E|----------|

===============================================================================

-------------------------------------------------------------------------------
 3.	                   Sweet Disposition 
-------------------------------------------------------------------------------

 Verse  (0.37)
G|---7~-------7~--------7~-------------|
D|-------------------------------------|
A|55-------55--------------------------|
E|-------------------77-------333~-----|

G|---7~-------7~--------7~-------------|
D|-------------------------------------|
A|55-------55--------------------------|
E|-------------------77-------333-5~---|

G|--------------------------------------------------|
D|--------------------------------------------------|
A|5~--------------------5~--------------------------|
E|----------7~----3~--------------7~----3~--5~------|

G|----------------------------|
D|----------------------------|
A|5~--------------------------|
E|----------7~----3~--5~------|

G|-------------------------------------|
D|-------------------------------------|
A|5555555555555555-5555555555555555----|
E|-------------------------------------|

 Chorus x4
G|-----------------------------------------|
D|-----------------------------------------|
A|55555555---------------------------------|
E|---------77777777-33333333-00000000------|

 x2
G|-------------------------------------|
D|-------------------------------------|
A|5555555555555555-5555555555555555----|
E|-------------------------------------|

 Verse x4
G|---------------------------------------|
D|---------------------------------------|
A|5555555555555555-----------------------|
E|-----------------77777777-33333333-----|

G|-------------------------------------|
D|-------------------------------------|
A|5555555555555555-5555555555555555----|
E|-------------------------------------|

G|------------------------------------------|
D|----------------------------/121212121212-|
A|5555555555555555-5555555555---------------|
E|------------------------------------------|

 Chorus x8


G|-----------|
D|-----------|
A|5~---------|
E|-----------|


===============================================================================

-------------------------------------------------------------------------------
 4.			       Down River
-------------------------------------------------------------------------------

 Intro x2 (0.08)
G|-----------------------|
D|-----------------------|
A|55555555---------------|
E|---------33333333------|

 Verse x3
G|---------------------------------------------------------------------------|
D|---------------------------------------------------------------------------|
A|55555555----------55555555----------------------------44444444-77777777----|
E|---------33333333----------33333333-77777777-55555555----------------------|

 Pre-Chorus 
G|777777777777-66-777777777777-99-7-|
D|----------------------------------|
A|----------------------------------|
E|----------------------------------|

 Chorus 
G|----------------------------------777777777777-66-777777777777-99-7---|
D|----------------------------------------------------------------------|
A|-----------------4444444444444444-------------------------------------|
E|7777777777777777------------------------------------------------------|

G|---------------------------------------|
D|---------------------------------------|
A|-----------------4444444444444444------|
E|7777777777777777-----------------------|

 Pause

 x2 (1.40)
G|-----------------------|
D|-----------------------|
A|55555555---------------|
E|---------33333333------|

 Verse x3

 Pre-Chorus

 Chorus

 Outro x2
G|---------------------------------------------------------------------------|
D|---------------------------------------------------------------------------|
A|55555555----------55555555----------------------------44444444-77777777----|
E|---------33333333----------33333333-77777777-55555555----------------------|

 
G|--------------|
D|--------------|
A|5~------------|
E|--------------|


===============================================================================

-------------------------------------------------------------------------------
 5.		                Soldier On 
-------------------------------------------------------------------------------

 Verse x2 (0.47)
G|-----9-7~---------11----------------------|
D|---------------------12~------------------|
A|------------5~----------------------------|
E|7~--------------------------2~----3~------|

G|--------------------------------|
D|--------------------------------|
A|--------------------------------|
E|7~---7-7~---7-7~---7-7~---------|

 Verse x4

 Chorus x3
G|--------------------------------|
D|--------9~----------11~---------|
A|9-8-7~------7-8-9~--------------|
E|--------------------------------|

G|--------------------|
D|--------------------|
A|--------------------|
E|3~----5~------------|

 Verse x4

 Chorus

 verse x4

G|------------------------------------|
D|------/555555---------/555555-------|
A|------------------------------------|
E|33333----------333333---------------|

 x5
G|-------------------9-7-----------------------------|
D|--------------7----------------4-----------5-------|
A|-----------55---55--------4------4----5------5-----|
E|77777777-9-------------22---22-----33---33---------|

===============================================================================

-------------------------------------------------------------------------------
 6.		               Fader 
-------------------------------------------------------------------------------

 Verse (0.07)
G|-------------------------------------------------------------------------|
D|------------------55555555-22222222--------------------------------------|
A|00000000-22222222-------------------00000000-22222222----------55555555--|
E|------------------------------------------------------33333333-----------|

G|-------------------------------------------------------------------------|
D|------------------55555555-22222222--------------------------------------|
A|00000000-22222222-------------------00000000-22222222--------------------|
E|------------------------------------------------------33333333333333333--|

 Chorus x2
G|-------------------------------------------------------------------------|
D|------------------5555555555555555---------------------------------------|
A|00000000-22222222------------------00000000-22222222---------------------|
E|-----------------------------------------------------333333333333-0000---|

 Verse

 Chorus x8

===============================================================================

-------------------------------------------------------------------------------
 7.			      Fools 
-------------------------------------------------------------------------------

 Verse (0.23)
G|--------------------------------------------------|
D|------------------2~----------------------2~------|
A|5~----2~----------------5~----2~--------0---------|
E|------------0~----------------------0~------------|

 Chorus
G|--------------------------------------------------|
D|--------------------------------------------------|
A|5~----2~----------------5~----2~----0~------------|
E|------------0~----3~----------------------3~------|

 Post-Chorus 
G|----------------------9-7-------------------------------------------|
D|------7-5---------7/9-----9------------------2-----7-5--------------|
A|5~--------7------------------5~----2~--0-2-5-----------7---5-7------|
E|------------7~---------------------------------0~--------0-----7----|

 Verse

 Chorus 

 Pause


 Bridge x4 (3.16)
G|------------------------------------------------------------|
D|------------------------------------------------------------|
A|5-5-5-55-55-5--5-5-5-55-55-5--2-2-2-22-22-2--0-0-0-00-00-0--|
E|------------------------------------------------------------|

 Chorus x5
G|------------------------------------------------------------|
D|------------------------------------------------------------|
A|5-5-5-55-55-5--5-5-5-55-55-5--2-2-2-22-22-2--0-0-0-00-00-0--|
E|------------------------------------------------------------|

 
G|-------------|
D|-------------|
A|5~-----------|
E|-------------|

===============================================================================

-------------------------------------------------------------------------------
 8.		              Resurrection 
-------------------------------------------------------------------------------

 Chorus (1.47)
G|---------------------------------------------------------------------------------|
D|------2~--------2~--------2~--------2~----------------------------2~--------2~---|
A|----------------------------------------------5~--------5~-----------------------|
E|0-2-0-----0-2-0-----0-3-3-----0-3-3-----0-3-3-----0-5-5-----0-2-0-----0-2-0------|


 Bridge (3.27 - 3.58)
G|--------------------|
D|--2--0--4-0-2-------|
A|--------------------|
E|0-------------------|

G|----------------------|
D|----------------------|
A|3~--------------------|
E|------3~----5~--------|

G|--------------------|
D|--2--0--4-0-2-------|
A|--------------------|
E|0-------------------|

G|----------------------|
D|----------------------|
A|3~--------------------|
E|------3~----5~--------|

 x8
G|----------------------------------------|
D|----------------------------------------|
A|77777777-22222222-33333333--------------|
E|---------------------------33333-2-0----|

 x3
G|--------------------|
D|--2--0--4-0-2-------|
A|--------------------|
E|0-------------------|

G|--------|
D|--------|
A|--------|
E|0~------|

===============================================================================

-------------------------------------------------------------------------------
 9.			       Science Of Fear 
-------------------------------------------------------------------------------

 Verse (0.12)
G|--------------------------------------------------------------------------------------------|
D|--------------------------------------------------------------------------------------------|
A|--2222222222222222-/555------------------/55------------------/55---------------------------|
E|3-----------------------3333333333333333-----0000000000000000-----3333333333333333-55555555-|

G|------------------------------------------------------------------------------|
D|----------------------------------2222222222222222----------------------------|
A|2222222222222222--------------------------------------------------------------|
E|-----------------3333333333333333------------------3333333333333333-55555555--|

 Pause

G|------------------------------------------------------------------------------------------|
D|------------------------------------------------------------------------------------------|
A|222222222222222222-/55-----------------/55------------------/55---------------------------|
E|----------------------3333333333333333-----0000000000000000-----3333333333333333-55555555-|

 x2
G|------------------------------------------------------------------------------|
D|----------------------------------2222222222222222----------------------------|
A|2222222222222222--------------------------------------------------------------|
E|-----------------3333333333333333------------------3333333333333333-55555555--|


G|----------------|
D|----------------|
A|2~--------------|
E|----------------|

 Pause

 (2.52)
G|----------------------------------------------------------------|
D|----------------------------------------------------------------|
A|222222-555-2222222-555-222222-555-222222-555--------------------|
E|---------------------------------------------33333333333333333--|

G|--------------------------------------------------------------------|
D|--------------------------------------------------------------------|
A|-------5----------5----------5----------5---------------------------|
E|000000---7-000000---7-000000---7-000000---7-3333333333333333-555555-|

 
G|------------------------------------------------------------------------------|
D|------------------------------------------------------------------------------|
A|2222222222222222--------------------------------------------------------------|
E|-----------------3333333333333333-0000000000000000-3333333333333333-55555555--|

G|----------------------------------------------------------------|
D|----------------------------------------------------------------|
A|222222-555-2222222-555-222222-555-222222-555--------------------|
E|---------------------------------------------33333333333333333--|


G|--------------------------------------------------------------------|
D|--------------------------------------------------------------------|
A|-------5----------5----------5----------5---------------------------|
E|000000---7-000000---7-000000---7-000000---7-3333333333333333-555555-|

G|---------|
D|---------|
A|2~-------|
E|---------|

===============================================================================

-------------------------------------------------------------------------------
 10.		                 Drum Song 
-------------------------------------------------------------------------------


 Intro x2 (0.22)
G|------------------------------------------------------------------------|
D|------------------------------------------------------------------------|
A|-----------/7777------------/7777------------/77777------------/77777---|
E|0-00-0-0-0-------0-00-0-0-0-------0-00-0-0-0--------0-00-0-0-0----------|

  x3
G|-----4-2-55----------|
D|--------------5------|
A|2-22--------3--------|
E|---------------------|

G|-----4-2-55----|
D|---------------|
A|2-22-----------|
E|---------------|


G|------------------------------------------------------------------------------------|
D|------------------------------------------------------------------------------------|
A|-----------------------------------------------------------------------------5-5-5--|
E|0-0-0--0-0-0--0-0-0--0-0-0--0-0-0--0-0-0--0-0-0--0-0-0--7-7-7--7-7-7--5-5-5---------|

G|-------------------------------------------------------|
D|-------------------------------------------------------|
A|------------------------------------------------5-5-5--|
E|0-0-0--0-0-0--0-0-0--0-0-0--7-7-7--7-7-7--5-5-5--------|

 Pause

 (1.06)
G|------------------------------|
D|------------------------------|
A|--------------------5-5-5-----|
E|7-7-7-7-7-7-7-5-5-5-----------|

G|-------------------------------------------------------|
D|-------------------------------------------------------|
A|------------------------------------------------5-5-5--|
E|0-0-0--0-0-0--0-0-0--0-0-0--7-7-7--7-7-7--5-5-5--------|

G|----------------------------------------------------------------|
D|----------------------------------------------------------------|
A|-------------------------------------------------------/777-----|
E|0-0-0--0-0-0--0-0-0--0-0-0--0-0-0--0-0-0--0-0-0--0-0-0----------|

G|------------------------------------------------------------------------|
D|------------------------------------------------------------------------|
A|-----------/7777------------/7777------------/77777------------/77777---|
E|0-00-0-0-0-------0-00-0-0-0-------0-00-0-0-0--------0-00-0-0-0----------|

 x3
G|-----4-2-55----------|
D|--------------5------|
A|2-22--------3--------|
E|---------------------|

G|-----4-2-55----|
D|---------------|
A|2-22-----------|
E|---------------|

G|------------------------------------------------------------------------------------|
D|------------------------------------------------------------------------------------|
A|-----------------------------------------------------------------------------5-5-5--|
E|0-0-0--0-0-0--0-0-0--0-0-0--0-0-0--0-0-0--0-0-0--0-0-0--7-7-7--7-7-7--5-5-5---------|

G|-------------------------------------------------------|
D|-------------------------------------------------------|
A|------------------------------------------------5-5-5--|
E|0-0-0--0-0-0--0-0-0--0-0-0--7-7-7--7-7-7--5-5-5--------|


 Pause

 x4 (2.02)
G|-------------------------|
D|-------------------------|
A|77777777777777-555-------|
E|-------------------------|

G|--------------------------------------|
D|--------------------------------------|
A|------------------7777777777777777----|
E|77777777-55555555---------------------|

G|--------------------------------------|
D|--------------------------------------|
A|------------------7-7-7-7--7-7-7-7----|
E|77777777-55555555---------------------|

 x4
G|----------------------|
D|----------------------|
A|7-7-7-----7-7-7-5-----|
E|------7/--------------|

x3
G|-----4-2-55----------|
D|--------------5------|
A|2-22--------3--------|
E|---------------------|

G|-----4-2-55----|
D|---------------|
A|2-22-----------|
E|---------------|

G|------------------------------------------------------------------------------------|
D|------------------------------------------------------------------------------------|
A|-----------------------------------------------------------------------------5-5-5--|
E|0-0-0--0-0-0--0-0-0--0-0-0--0-0-0--0-0-0--0-0-0--0-0-0--7-7-7--7-7-7--5-5-5---------|

G|-------------------------------------------------------|
D|-------------------------------------------------------|
A|------------------------------------------------5-5-5--|
E|0-0-0--0-0-0--0-0-0--0-0-0--7-7-7--7-7-7--5-5-5--------|

===============================================================================
comments
print report bad tab
I want to post or [tab]
guest
You may want to rate the tab now too:
select rating
Please do not post tabs as comments. Select "correction" instead!