Oops, an error
Loading. Please wait.

Aftershave Ocean Tab

ver2
ver2

Whole song

More versions @911Tabs.com
1,104 views 9 this week
no commentswrite comment
1 2 3 4 5
excellent!
x 8
Autoscroll
+/-
esc
set tempo
stop
Contributor
Difficulty
intermediate
Hey! There's an official Ultimate Guitar app which is ideal
for learning songs when you're away from computer. Get the app
WARNING: You are trying to view
                                    content from Ultimate-Guitar.com
                                    in an unauthorized application,
                                    which is prohibited.

                                    Please use an official Ultimate
                                    Guitar Tabs application for iPhone,
                                    iPad or Android to access legitimate
                                    chords, guitar, bass, and drum tabs
                                    from Ultimate-Guitar.com database.

                                    Type "ultimate guitar tabs" in Apple
                                    App Store's or Android Market's
                                    search to find the application.
Im not 100% sure about this but sounds pretty accurate to me, try it out.
I was waiting to upload a cover but Im toooo lazy to do that soo here is the tab, 
any suggestion leave a comment or email me or whatever 
If you use this tab in a video idk just put the source, please

------------------------------------------------------------------------------------

Song: Aftershave Ocean
Artist: The Vaccines
Album: Come Of Age
www.thevaccines.co.uk/

------------------------------------------------------------------------------------

~~= vibrato
/= slide up
\= slide down
b= bend
b(note)r= bend up to that note then release the bend
( )= optional note

  =Intro=
00:00
     e----------------|---------------|-----------------|-----------------|
     B----------------|---------------|-----------------|-----------------|
     G--7-7-7-7--7--xx|-7-7-7-7--7----|-2-2-2-----------|-2-2-2-----------|
     D--7-7-7-6--6--xx|-7-7-7-6--6----|-2-2-2-----------|-2-2-2-----------|
     A--0-0-0-0--7--xx|-0-0-0-0--7----|-0-0-0-----------|-0-0-0-----------|
     E----------------|---------------|-------2b--0-2-0-|-------2b--0-2-0-|

00:09
     e--------------------------------------/14141414141414141414\-|
     B--9--9-10--991012--10--12--12/14--14--/14141414141414141414\-|
     G--------------------------------------/14141414141414141414\-|
     D-------------------------------------------------------------|
     A-------------------------------------------------------------|
     E-------------------------------------------------------------|

     e--------------------------------------0-14------------------|
     B--9--9-10--991012--10--12--12/14--14--0-14------------------|
     G----------------------------------------14------------------|
     D------------------------------------------------------------|
     A------------------------------------------------------------|
     E------------------------------------------------------------|


  =Verse 1=
00:27
     e-----5---------|-7--7--7--------|-9---9----9--9-|-8--8--8--8---7-7-|x2
     B-----5---------|-9--9--9--------|-10--10---10-10|-10-10-10-10--9-9-|
     G--6--6--6------|-9--9--9--------|-11--11---11-11|-10-10-10-10--9-9-|
     D--7--7--7------|-9--9--9--------|-11--11---11-11|-10-10-10-10--9-9-|
     A--7--7--7-----5|-7--7--7------7/|-9---9----9--9-|-8--8--8--8---7-7-|
     E--5--5--5-7-9--|---------10-9---|---------------|------------------|


  =Outro=
00:45
     e------------------------------------------------------|
     B--7------7-9----9b10r-7-7----5-5----------------------|
     G------------------------------------7-7----6-6--4-----|
     D------------------------------------------------------|
     A------------------------------------------------------|
     E------------------------------------------------------|

     e------------------------------------------------------|
     B--7------7-9----9b10r-7-7----9-9----10-10----12-12----|
     G------------------------------------------------------|
     D------------------------------------------------------|
     A------------------------------------------------------|
     E------------------------------------------------------|


  =Chorus=
01:04
     e---------------|--------------|--------------|--------------|
     B--10---10-12b-9|-10---10-12b-9|-10---10-12b-9|-------14-12-9|
     G---------------|--------------|--------------|-9-9-9--------|
     D---------------|--------------|--------------|--------------|
     A---------------|--------------|--------------|--------------|
     E---------------|--------------|--------------|--------------|

     e---------------|--------------|----------------------------|
     B--10---10-12b-9|-10---10-12b-9|-15-14-12-10----------------|
     G---------------|--------------|-------------10-10-10-10-9-9|
     D---------------|--------------|----------------------------|
     A---------------|--------------|----------------------------|
     E---------------|--------------|----------------------------|


  =Verse 2=
01:23
     e-----5---------|-7--7--7--------|-9---~~~-9--9--9-|-8--8--8--8---7-7-|
     B-----5---------|-9--9--9--------|-10--~~~-10-10-10|-10-10-10-10--9-9-|
     G--6--6--6------|-9--9--9--------|-11--~~~-11-11-11|-10-10-10-10--9-9-|
     D--7--7--7------|-9--9--9--------|-11--~~~-11-11-11|-10-10-10-10--9-9-|
     A--7--7--7-----5|-7--7--7------7/|-9---~~~-9--9--9-|-8--8--8--8---7-7-|
     E--5--5--5-7-9--|---------10-9---|-----------------|------------------|

     e-----5---------|---------------|-------------|-8--8--8--8---7-7-|
     B-----5---------|---------------|-------------|-10-10-10-10--9-9-|
     G--6--6--6-5-4-3|-2--2--2-3-4-5-|6--6--6-5-4-3|-10-10-10-10--9-9-|
     D--7--7--7-6-5-4|-3--3--3-4-5-6-|7--7--7-6-5-4|-10-10-10-10--9-9-|
     A--7--7--7-6-5-4|-3--3--3-4-5-6-|7--7--7-6-5-4|-8--8--8--8---7-7-|
     E--5--5--5-4-3-2|-1--1--1-2-3-4-|5--5--5-4-3-2|------------------|


  =Outro=
01:41
     e------------------------------------------------------|
     B--7------7-9----9b10r-7-7----5-5----------------------|
     G------------------------------------7-7----6-6--4-----|
     D------------------------------------------------------|
     A------------------------------------------------------|
     E------------------------------------------------------|

     e------------------------------------------------------|
     B--7------7-9----9b10r-7-7---9-9----10-10----12-12-----|
     G------------------------------------------------------|
     D------------------------------------------------------|
     A------------------------------------------------------|
     E------------------------------------------------------|


  =Chorus=

02:00
     e---------------|--------------|--------------|--------------|
     B--10---10-12b-9|-10---10-12b-9|-10---10-12b-9|-------14-12-9|
     G---------------|--------------|--------------|-9-9-9--------|
     D---------------|--------------|--------------|--------------|
     A---------------|--------------|--------------|--------------|
     E---------------|--------------|--------------|--------------|

     e---------------|--------------|----------------------------|
     B--10---10-12b-9|-10---10-12b-9|-15-14-12-10----------------|
     G---------------|--------------|-------------10-10-10-10-9-9|
     D---------------|--------------|----------------------------|
     A---------------|--------------|----------------------------|
     E---------------|--------------|----------------------------|


  =Solo=

02:17
     e--141414-1414-1414-12-10-9--|-9910--9--7/12--0----------|
     B-------------------------0--|-00-------------0----------|
     G----------------------------|---------------------------|
     D----------------------------|---------------------------|
     A----------------------------|---------------------------|
     E----------------------------|---------------------------|

     e-(141414-14-1414)--------------------------------------14-14--16-16--|
     B------------------17-15-14--15--14--14-----14------17----------------|
     G---------------------------------------16------16--------------------|
     D--141414-14-1414--14-14-14--14--14--14-14--14------------------------|
     A---------------------------------------------------------------------|
     E---------------------------------------------------------------------|

02:36
     e--------------------------------------/14141414141414141414\-|x2
     B--9--9-10--991012--10--12--12/14--14--/14141414141414141414\-|
     G--------------------------------------/14141414141414141414\-|
     D-------------------------------------------------------------|
     A-------------------------------------------------------------|
     E-------------------------------------------------------------|


  =Outro=
02:54
     e------------------------------------------------------|
     B--7------7-9----9b10r-7-7----5-5----------------------|
     G------------------------------------7-7----6-6--4-----|
     D------------------------------------------------------|
     A------------------------------------------------------|
     E------------------------------------------------------|

     e------------------------------------------------------|
     B--7------7-9----9b10r-7-7---9-9----10-10----12-12-----|
     G------------------------------------------------------|
     D------------------------------------------------------|
     A------------------------------------------------------|
     E------------------------------------------------------|

     e---------------------------|
     B--10-----------------------|
     G---------------------------|
     D---------------------------|
     A---------------------------|
     E---------------------------|


  =Chorus=
03:22
     e---------------|--------------|--------------|--------------|
     B--10---10-12b-9|-10---10-12b-9|-10---10-12b-9|-------14-12-9|
     G---------------|--------------|--------------|-9-9-9--------|
     D---------------|--------------|--------------|--------------|
     A---------------|--------------|--------------|--------------|
     E---------------|--------------|--------------|--------------|

     e---------------|--------------|---------------------------|
     B--10---10-12b-9|-10---10-12b-9|-15-14-12-10---------------|
     G---------------|--------------|-------------10-10-10-10-9-|
     D---------------|--------------|---------------------------|
     A---------------|--------------|---------------------------|
     E---------------|--------------|---------------------------|

03:40
     e----------------|---------------|---------------|-------------------|
     B--14---14-15b-12|-14---14-15b-12|-14---14-15b-12|----------14-12-12/|
     G----------------|---------------|---------------|-13-13-13----------|
     D----------------|---------------|---------------|-------------------|
     A----------------|---------------|---------------|-------------------|
     E----------------|---------------|---------------|-------------------|

     e----------------|--------------|---------------|-------------------------------|
     B--14---14-15b-12|-14---1-15b-12|-/15-14-12-----|-------------------------------|
     G----------------|--------------|-------------14|-10-10-10-10--12-12/14-14------|
     D----------------|--------------|---------------|-------------------------------|
     A----------------|--------------|---------------|-------------------------------|
     E----------------|--------------|---------------|-------------------------------|



                               =========================================
                                Don`t forget to rate! that helps a lot!
                               =========================================

¨¨¨¨¨¨¨¨¨¨¨¨¨¨¨¨¨¨¨¨¨¨¨¨¨¨¨¨¨¨¨¨¨¨
-f.alejandro27@gmail.com
-www.confort-reciclado.tumblr.com
-www.last.fm/user/mr_ahab

comments
print report bad tab
I want to post or [tab]
guest
You may want to rate the tab now too:
select rating
Please do not post tabs as comments. Select "correction" instead!