Oops, an error
Loading. Please wait.

The Ringleader Tab

ver2
ver2

Whole song

More versions @911Tabs.com
206 views 1 this week
no commentswrite comment
1 2 3 4 5
please rate
Autoscroll
+/-
esc
set tempo
stop
Contributor
WARNING: You are trying to view
                                    content from Ultimate-Guitar.com
                                    in an unauthorized application,
                                    which is prohibited.

                                    Please use an official Ultimate
                                    Guitar Tabs application for iPhone,
                                    iPad or Android to access legitimate
                                    chords, guitar, bass, and drum tabs
                                    from Ultimate-Guitar.com database.

                                    Type "ultimate guitar tabs" in Apple
                                    App Store's or Android Market's
                                    search to find the application.
D|---------------------------------------------------------------------------|
A|---------------------------------------------------------------------------|
F|---------------------------------------------------------------------------|
C|---------------------------------------------------------------------------|
G|---------------------------------------------------------------------------|
C|---------------------------------------------------------------------------|

Intro, Part A. Play 1 time:
D |--------------------------------------------------------------------------|
A |--------------------------------------------------------------------------|
F |------10-9-8---------------------10----------8--------------10--11--------|
C |--------------11-10----8-7-8-11-------7-10--------4--7--8---10--11--------|
G |--------------------------------------------------4--7--8---8----9--------|
C |--------------------------------------------------4--7--8-----------------|

Intro, Part B. Play 2 times:
D|---------------------------8--9--------------------------------------------------|
A|--11-(play 28 times)---10--11----------------------------------------------------|
F|---------------------------------------------------------------------------------|
C|---------------------------------------------------------------------------------|
G|---------------------------------------------------------------------------------|
C|---------------------------------------------------------------------------------|

Intro, Part C. Play 1 time:
D|---------------------------------------------------------------------------|
A|---------------------------------------------------------------------------|
F|---------------------------------------------------------------------------|
C|-----11--\---1---4---3-----------------------------------------------------|
G|-----11--\---1---4---3-----------------------------------------------------|
C|-----11--\---1---4---3-----------------------------------------------------|

Verse 1:
D |-----------------------------------------------------------------------------|
A |---11-11-11-11----14----------------11-11-11-11-----14---------12--10--11----|
F |-----------------------11---------------------------------11----x---x---x----|
C |--8--8--8--8--8/11-----------9--8-----8--8--8---8/11------------9---7---8----|
G |---------------------9---8---9--8-----------------------9----8---------------|
C |-----------------------------9--8--------------------------------------------|

D |--------------------------------------------------------------------------|
A |----11-11-11-11----14------12-10-11--11-11--------------------------------|
F |-----------------------11---x--x--x---x--x-------9--9---9--9--------------|
C |------8--8--8--8/11---------9--7--8---8--8-------8--8---8--8--------------|
G |---------------------9---8------------9--8----7-------7-------------------|
C |----------------------------------------------8-------8-------------------|

D |-------1-------1-------1--------1------------4-------2-------------------|
A |-------2-------2-------2--------2------------6-------2-------------------|
F |-------3-------3-------3--------3------------x-------3---------4---3-----|
C |-------3-------3-------3--------3------------------------------4---3-----|
G |---1-------1-------1-------1--------1-//-4-------4------3------2---1-----|
C |-------------------------------------------------4------3----------------|

repeat 4 times, then:

D |------------------------------------------------------------------------|
A |------------------------------------------------------------------------|
F |----5--6--5--6--5--6--5--6---12--13--12--13--12--13--12--13-------------|
C |----4--5--4--5--4--5--4--5---11--12--11--12--11--12--11--12-------------|
G |------------------------------------------------------------------------|
C |------------------------------------------------------------------------|

Chorus!

D |-------------------------------------------9-8h9p8-----------------9-8h9p8---11-|
A |-----------------------------------11---11---------------12-11--11-----------11-|
F |--------------------------------------10-----------11-10------10-----------1-11-|
C |--8-8-8-8-8-8-8-8-8-8-8-8-8-8-8-8-----------------------------------------------|
G |--8-8-8-8-8-8-8-8-8-8-8-8-8-8-8-8-----------------------------------------------|
C |--8-8-8-8-8-8-8-8-8-8-8-8-8-8-8-8-----------------------------------------------|

D |---------------------------11--8-----------9-8h9p8-----------------9-8h9p8---11--|
A |-----------------------------------11---11---------------12-11--11-----------11--|
F |--------------------------------------10-----------11-10------10-----------1-11--|
C |--8-8-8-8-8-8-8-8----------------------------------------------------------------|
G |--8-8-8-8-8-8-8-8---(slide up 4 times)-------------------------------------------|
C |--8-8-8-8-8-8-8-8----------------------------------------------------------------|

Post-Chorus 1:

D |----9---9---9---9---9---9---9---9---9---9-- 10--10--12--12------------------|
A |----11--11--11--11--11--11--11--11--11--11--11--11--11--11----12------------|
F |----10--10--10--10--10--10--10--10--10--10--10--10--10--10----15------------|
C |----------------------------------------------------------------------------|
G |----------------------------------------------------------------------------|
C |----------------------------------------------------------------------------|

Verse 2:

D |--1---1---1---1---1-----------------------------------------------------|
A |--2---2---2---2---2--4--2--1-----------4--4--4---2--1--2----------------|
F |--3---3---3---3---3-----------3--2--3--3--3--3--------------------------|
C |---------------------------------------4--4--4------------4--6--7--8--9-|
G |-------------------------------------------------------------4--5--6--7-|
C |------------------------------------------------------------------------|

D |------------------------------------------------------------------------|
A |---11-11-11-11---------------------------------11-11-11-11--------------|
F |-------------------8---10-10-10-10---------------------------------8----|
C |---8--8--8--8---10-----------------8--11--10---8--8--8--8------10-------|
G |---------------8-------8--8--8--8--------8------------------8-----------|
C |------------------------------------------------------------------------|

D |----------------------------------------------//-9-9-11-11-12-12-13-13-------|
A |--------------------9--10--11------------------------------------------------|
F |-----------------------------------------------------------------------------|
C |----11--11----------6---7---8----(slow slide down)---------------------------|
G |-------------9--9------------------------------------------------------------|
C |-----------------------------------------------------------------------------|

D |------------------------------------------------------------------------|
A |------------------------------------------------------------------------|
F |---------9---9-------9--9-----5--6--5--6----12--13--12--13--------------|
C |---------8---8-------8--8-----4--5--4--5----11--12--11--12--------------|
G |----7------------8------------------------------------------------------|
C |----8------------7------------------------------------------------------|

[Chorus]

Post Chorus 2:

D |---9--9--9--9--9--9--9--9-------------------------------------------|
A |---11-11-11-11-11-11-11-11------------------------------------------|
F |---10-10-10-10-10-10-10-10------------------------------------------|
C |-----------------------------3-3---3-3---3-3---3-3------------------|
G |-----------------------------1-1---1-1---1-1---1-1------------------|
C |--------------------------------------------------------------------|

Bridge:

D |----------------------------------------------|
A |----------------------------------------------|
F |----------------------------------------------|
C |----8--11--8--11--8--11----10---- |       x 8-|
G |-------------------------9--------------------|
C |----------------------------------------------|

D |---------------------------------|
A |---------------------------------|
F |----3-----6--5-----2-------------|
C |----3-----6--5-----2-------------|
G |----1-----4--3-----0-------------|
C |---------------------------------|

D |----------------------------------------------|
A |----------------------------------------------|
F |----------------------------------------------|
C |----8--11--8--11--8--11----10---- |       x 2-|
G |-------------------------9--------------------|
C |----------------------------------------------|

D |-------------------------------|
A |-------------------------------|
F |----3-----6--5-------------4---|
C |----3-----6--5---4---3-----4---|
G |----1-----4--3---4---3-----2---|
C |-----------------4---3---------|

D |---------------------------------|
A |---------------------------------|
F |---------------------------------|
C |----8--11--8--11--8--11----10----|        x 2
G |-------------------------9-------|
C |---------------------------------|

D |------------------------------------------------------------------------------------|
A |------------------------------------------------------------------------------------|
F |----9---9---------9----9----9------------9------9---9-------------------------------|
C |---8---8----------8----8----8------------8------8---8-------------------------------|
G |-7---------7---7-----7-----------7----7-----7------------------(slide up 4 times)---|
C |-8---------8---8-----8-----------8----8-----8---------------------------------------|

[Chorus] x 2

[Intro w/ a couple changes- I'll let you figure them out]


| /  slide up
| \  slide down
| h  hammer-on
| p  pull-off
| ~  vibrato
| +  harmonic
| x  Mute note
comments
We did not receive enough feedback on this tab! Please rate:
1 2 3 4 5
I want to post or [tab]
guest
You may want to rate the tab now too:
select rating
Please do not post tabs as comments. Select "correction" instead!