Oops, an error
Loading. Please wait.

This Could Be My Moment Tab

747 views 1 this week
no commentswrite comment
1 2 3 4 5
excellent!
x 1
Autoscroll
+/-
esc
set tempo
stop
Hey! There's an official Ultimate Guitar app which is ideal
for learning songs when you're away from computer. Get the app
WARNING: You are trying to view
                                    content from Ultimate-Guitar.com
                                    in an unauthorized application,
                                    which is prohibited.

                                    Please use an official Ultimate
                                    Guitar Tabs application for iPhone,
                                    iPad or Android to access legitimate
                                    chords, guitar, bass, and drum tabs
                                    from Ultimate-Guitar.com database.

                                    Type "ultimate guitar tabs" in Apple
                                    App Store's or Android Market's
                                    search to find the application.
My first tab - tricky song to play, I'm pretty sure everything is correct except
the solo at the end.

OllyRogers@live.co.uk

0:05 - 0:25

e|------------------------------------------------------------| (x3)
b|------------------------------------------------------------|
G|----13h14p13------------------------------------------------|
D|-------------14---------------------------------------------|
A|------------------------------------------------------------|
E|------------------------------------------------------------|

e|------------------------------------------------------------|
b|------------------------------------------------------------|
G|------------------------------------------------------------|
D|--------2---2---2-2h4-2h4-2~--------------------------------|
A|----2h4---4---4---------------------------------------------|
E|------------------------------------------------------------|

e|------------------------------------------------------------| (x3)
b|------------------------------------------------------------|
G|----13h14p13------------------------------------------------|
D|-------------14---------------------------------------------|
A|------------------------------------------------------------|
E|------------------------------------------------------------|

e|------------------------------------------------------------|
b|------------------------------------------------------------|
G|------------------------------------------------------------|
D|--------2---2---2-2h4-2h4-2~--------------------------------|
A|----2h4---4---4---------------------------------------------|
E|------------------------------------------------------------|

0:25 - 0:34

e|------------------------------------------------------------|
b|------------------------------------------------------------|
G|----------------4h6-6~--------------------------------------|
D|--------2h4-4h6---------------------------------------------|
A|----2h4-----------------------------------------------------|
E|------------------------------------------------------------|

e|------------------------------------------------------------|
b|----12p10-12p10---------------------------------------------|
G|----------------11-11p9---------9---------------------------|
D|------------------------11-9h11-----------------------------|
A|------------------------------------------------------------|
E|------------------------------------------------------------|

0:34 - 0:45

e|------------------------------------------------------------| (x3)
b|------------------------------------------------------------|
G|---------9------------9h11p9--------------------------------|
D|----9h11---------9h11---------------------------------------|
A|------------------------------------------------------------|
E|------------------------------------------------------------|

e|------------------------------------------------------------|
b|------------------------------------------------------------|
G|----11-11-11-9-11/13-13-11/9---------9~---------------------|
D|-----------------------------11-9h11------------------------|
A|------------------------------------------------------------|
E|------------------------------------------------------------|

0:45 - 0:54

e|------------------------------------------------------------|
b|------------------------------------------------------------|
G|----------------4h6-6~--------------------------------------|
D|--------2h4-4h6---------------------------------------------|
A|----2h4-----------------------------------------------------|
E|------------------------------------------------------------|

e|------------------------------------------------------------|
b|----12p10-12p10---------------------------------------------|
G|----------------11-11p9---------9---------------------------|
D|------------------------11-9h11-----------------------------|
A|------------------------------------------------------------|
E|------------------------------------------------------------|

0:54 - 1:05

e|------------------------------------------------------------| (x3)
b|------------------------------------------------------------|
G|---------9------------9h11p9--------------------------------|
D|----9h11---------9h11---------------------------------------|
A|------------------------------------------------------------|
E|------------------------------------------------------------|

e|------------------------------------------------------------|
b|------------------------------------------------------------|
G|----11-11-11-9-11/13-13-11/9---------9~---------------------|
D|-----------------------------11-9h11------------------------|
A|------------------------------------------------------------|
E|------------------------------------------------------------|

1:05 - 1:25

e|------------------------------------------------------------| (x3)
b|------------------------------------------------------------|
G|----13h14p13------------------------------------------------|
D|-------------14---------------------------------------------|
A|------------------------------------------------------------|
E|------------------------------------------------------------|

e|------------------------------------------------------------|
b|------------------------------------------------------------|
G|------------------------------------------------------------|
D|--------2---2---2-2h4-2h4-2~--------------------------------|
A|----2h4---4---4---------------------------------------------|
E|------------------------------------------------------------|

e|------------------------------------------------------------| (x3)
b|------------------------------------------------------------|
G|----13h14p13------------------------------------------------|
D|-------------14---------------------------------------------|
A|------------------------------------------------------------|
E|------------------------------------------------------------|

e|------------------------------------------------------------|
b|------------------------------------------------------------|
G|------------------------------------------------------------|
D|--------2---2---2-2h4-2h4-2~--------------------------------|
A|----2h4---4---4---------------------------------------------|
E|------------------------------------------------------------|


1:25 - 1:36

e|------------------------------------------------------------|
b|------------------------------------------------------------|
G|----------------4h6-6~--------------------------------------|
D|--------2h4-4h6---------------------------------------------|
A|----2h4-----------------------------------------------------|
E|------------------------------------------------------------|

e|------------------------------------------------------------|
b|----12p10-12p10---------------------------------------------|
G|----------------11-11p9---------9---------------------------|
D|------------------------11-9h11-----------------------------|
A|------------------------------------------------------------|
E|------------------------------------------------------------|

1:36 - 1:45

e|------------------------------------------------------------| (x3)
b|------------------------------------------------------------|
G|---------9------------9h11p9--------------------------------|
D|----9h11---------9h11---------------------------------------|
A|------------------------------------------------------------|
E|------------------------------------------------------------|

e|------------------------------------------------------------|
b|------------------------------------------------------------|
G|----11-11-11-9-11/13-13-11/9---------9~---------------------|
D|-----------------------------11-9h11------------------------|
A|------------------------------------------------------------|
E|------------------------------------------------------------|

1:45 - 2:05 (x2)

e|------------------------------------------------------------| (x3)
b|------------------------------------------------------------|
G|----13h14p13------------------------------------------------|
D|-------------14---------------------------------------------|
A|------------------------------------------------------------|
E|------------------------------------------------------------|

e|------------------------------------------------------------|
b|------------------------------------------------------------|
G|------------------------------------------------------------|
D|--------2---2---2-2h4-2h4-2~--------------------------------|
A|----2h4---4---4---------------------------------------------|
E|------------------------------------------------------------|

2:05 - 2:25

e|------------------------------------------------------------| (x3)
b|------------------------------------------------------------|
G|------------------------------------------------------------|
D|----4/6-6-6-4-2h4p2------------------------------2-2h4p2----|
A|---------------------------------------------2h4------------|
E|------------------------------------------------------------|

e|------------------------------------------------------------|
b|------------------------------------------------------------|
G|------------------------------------------------------------|
D|----6h7-7-6h7-7-6h7-7-6-7-6-7/9-7-6-4-2---------------------|
A|------------------------------------------------------------|
E|------------------------------------------------------------|

2:25 - 2:45

e|------------------------------------------------------------| (x3)
b|------------------------------------------------------------|
G|----13h14p13------------------------------------------------|
D|-------------14---------------------------------------------|
A|------------------------------------------------------------|
E|------------------------------------------------------------|

e|------------------------------------------------------------|
b|------------------------------------------------------------|
G|------------------------------------------------------------|
D|--------2---2---2-2h4-2h4-2~--------------------------------|
A|----2h4---4---4---------------------------------------------|
E|------------------------------------------------------------|

e|------------------------------------------------------------| (x3)
b|------------------------------------------------------------|
G|----13h14p13------------------------------------------------|
D|-------------14---------------------------------------------|
A|------------------------------------------------------------|
E|------------------------------------------------------------|

e|------------------------------------------------------------|
b|------------------------------------------------------------|
G|------------------------------------------------------------|
D|--------2---2---2-2h4-2h4-2~--------------------------------|
A|----2h4---4---4---------------------------------------------|
E|------------------------------------------------------------|

2:45 - 3:05

e|------------------------------------------------------------| (x9)
b|------------------------------------------------------------|
G|------------------------------------------------------------|
D|--------2---2-2h4-2h4---------------------------------------|
A|----2h4---4-------------------------------------------------|
E|------------------------------------------------------------|

3:05 - 3:22

e|------------------------------------------------------------| (x3)
b|------------------------------------------------------------|
G|------------------------------------------------------------|
D|------------------------------------------------------------|
A|----11b-11b-9-------------9---------------------------------|
E|-------------11p9h11p9h11-----------------------------------|

3:22 - 3:27

e|----------15-------15-------15---15b-15b-15----15----15-----|
b|----15h17----15h17----15h17-----------------17----17--------|
G|------------------------------------------------------------|
D|------------------------------------------------------------|
A|------------------------------------------------------------|
E|------------------------------------------------------------|

3:27 - 3:36

e|----15p14h15p14h15p14p12----12h14p12h14p12h14p12h14p12h14---| (x2)
b|-------------------------14---------------------------------|
G|------------------------------------------------------------|
D|------------------------------------------------------------|
A|------------------------------------------------------------|
E|------------------------------------------------------------|


3:36 - 3:56

e|----14/15-15/17-17/19-12------------------------------------|
b|------------------------------------------------------------|
G|------------------------------------------------------------|
D|------------------------------------------------------------|
A|------------------------------------------------------------|
E|------------------------------------------------------------|

e|----19p17-15p12----------12---------------------------------| (x3)
b|----------------14-12-14----14-12-14------------------------|
G|------------------------------------------------------------|
D|------------------------------------------------------------|
A|------------------------------------------------------------|
E|------------------------------------------------------------|

e|----19p17-15p12---------------------------------------------|
b|------------------------------------------------------------|
G|------------------------------------------------------------|
D|------------------------------------------------------------|
A|------------------------------------------------------------|
E|------------------------------------------------------------|

3:56

e|----12~-----------------------------------------------------|
b|------------------------------------------------------------|
G|------------------------------------------------------------|
D|------------------------------------------------------------|
A|------------------------------------------------------------|
E|------------------------------------------------------------|
comments
We did not receive enough feedback on this tab! Please rate:
print report bad tab
1 2 3 4 5
I want to post or [tab]
guest
You may want to rate the tab now too:
select rating
Please do not post tabs as comments. Select "correction" instead!