Oops, an error
Loading. Please wait.

Red Eyes Tab

6,985 views 217 this week
no commentswrite comment
1 2 3 4 5
excellent!
x 8
Autoscroll
+/-
esc
set tempo
stop
Contributor
Difficulty
intermediate
Hey! There's an official Ultimate Guitar app which is ideal
for learning songs when you're away from computer. Get the app
WARNING: You are trying to view
                                    content from Ultimate-Guitar.com
                                    in an unauthorized application,
                                    which is prohibited.

                                    Please use an official Ultimate
                                    Guitar Tabs application for iPhone,
                                    iPad or Android to access legitimate
                                    chords, guitar, bass, and drum tabs
                                    from Ultimate-Guitar.com database.

                                    Type "ultimate guitar tabs" in Apple
                                    App Store's or Android Market's
                                    search to find the application.
-------------------------------------------------------------------------------
                             Red Eyes - The War on Drugs
-------------------------------------------------------------------------------
                        Tabbed by THL22 AND jantastik, Rbeaver1340.

Capo 3

Tuning: standard EADGBe

When you play a G or  C be sure to hammer that A string 2nd fret with the G 
and the D string 2nd fret.
for the C. Listen to the live version to know how it?s done.
Live: https://www.youtube.com/watch?v=aJdx3BOOEjU
Studio: https://www.youtube.com/watch?v=bsoqmFL1vlU
I used both of these videos to make this tab.

Intro:

e|----------------------------------------------------------------|
B|----------------------------------------------------------------|
G|-5--5--5--5-0-5----0-5-7----5---5-7-5-0---------0----0-0h5~~~~~-|
D|----------------------------------------5----0h5-0-5------------|
A|----------------------------------------------------------------|
E|----------------------------------------------------------------|

e|--------------------------------|
B|--------------------------------|
G|--5-/-7--7-\-5------------------|
D|---------------8-5~~~~~---------|
A|--------------------------------|
E|--------------------------------|


Verse 1
G        C 
Come and see
Em      D         G        C
Where are we, there?s everything
G     C
On my way  
Em        D      G        C
Beat it down to get to my soul
G           C
Against my way
Em   D        G              C
Anyone could tell us you're comin?
G         C
Baby don?t mind
Em          D         G              C
Even on a lie, you can have it your way

(Instrumental)
Bridge:  D       Cmaj7     Cmaj7       

Verse 2
G              C
come and ride away
Em  D          G           C
It easier to stick to the earth
G                   C
Surrounded by the night
Em                  D         G           C
Surrounded by the night, and you don't grow old
G                 C
But you abuse my faith
Em       D         G                C
Losing every time but I don't know where
G              C
You're on my side.
Em            D       G      C
So ride the key wherever it goes
G                 C
I'll be the one, I can't, WHOO!

Main Solo:

e|---------------------------------------------------------------------------|
B|-11-13b(15)---(br13)-(p11)-------------------------------------------------|
G|---------------------------12---10-12~~-10-12~~----------------------------|
D|---------------------------------------------------------------------------|
A|---------------------------------------------------------------------------|
E|---------------------------------------------------------------------------|

e|---------------------------------------------------------------------------|
B|---------------------------------------------------------------------------|
G|-12---12-12-12-10---10-----------------------------------------------------|
D|-------------------------12-10-8-------------------------------------------|
A|---------------------------------10~~-8-10~~-8-10~~-8-10~~-----------------|
E|---------------------------------------------------------------------------|

e|---------------------------------------------------------------------------|
B|---------------------------------------------------------------------------|
G|-12---12-12-12-10---10-----------------------------------------------------|
D|-------------------------12-10-8--------------------------8~~--------------|
A|---------------------------------10~~-8-10~~-8-10~~-8-10-------------------|
E|---------------------------------------------------------------------------|

Phrase A
e|---------------------------------------------------------------------------|
B|---------------------------------------------------------------------------|
G|-------------------------7-------------------------------------------------|
D|-10~~-8-10~~-8-10~~-8-10---10-8--jump to start of solo and then phrase B---|
A|---------------------------------------------------------------------------|
E|---------------------------------------------------------------------------|

Phrase B
e|---------------------------------------------------------------------------|
B|---------------------------------------------------------------------------|
G|-------------------------7-------------------------------------------------|
D|-10~~-8-10~~-8-10~~-8-10---10-8-----8~~~~----------------------------------|
A|---------------------------------10----------------------------------------|
E|---------------------------------------------------------------------------|
Chords during solo:  
G    C    
Em    D     G    C 
Em    D     G    C
D   

Verse 3
G             C
You're all I've got-away
Em           D       G               C
Running in the dark and I come to my sense
Em             D       G                   C
You can see it in the dark, it's comin' our way
               D
Well we won't get lost inside again

(Instrumental)
Bridge:  D       Cmaj7     Cmaj7   

Quiet Part:   Cmaj7  Cmaj7  D    (x8) 

Ooo eeee

Oh no, no season, I can't wait
Made of iron, made of wood
I can't hear
Don't think we would mind
against it
I would keep you here, but I can't
Oh, I'll talk to you if I can find you now
I will see you wherever I go babe

Yeah, woah!

Solo:
e|---------------------------------------------------------------------------|
B|-11-13b(15)---(br13)-(p11)-------------------------------------------------|
G|---------------------------12---10-12~~-10-12~~----------------------------|
D|---------------------------------------------------------------------------|
A|---------------------------------------------------------------------------|
E|---------------------------------------------------------------------------|

e|---------------------------------------------------------------------------|
B|---------------------------------------------------------------------------|
G|-12---12-12-12-10---10-----------------------------------------------------|
D|-------------------------12-10-8-------------------------------------------|
A|---------------------------------10~~-8-10~~-8-10~~-8-10~~-----------------|
E|---------------------------------------------------------------------------|

e|---------------------------------------------------------------------------|
B|---------------------------------------------------------------------------|
G|-12---12-12-12-10---10-----------------------------------------------------|
D|-------------------------12-10-8--------------------------8~~--------------|
A|---------------------------------10~~-8-10~~-8-10~~-8-10-------------------|
E|---------------------------------------------------------------------------|

Phrase A
e|---------------------------------------------------------------------------|
B|---------------------------------------------------------------------------|
G|-------------------------7-------------------------------------------------|
D|-10~~-8-10~~-8-10~~-8-10---10-8--jump to start of solo and then phrase B---|
A|---------------------------------------------------------------------------|
E|---------------------------------------------------------------------------|
Chords: (continue until fade out) 
G    C    
Em    D     G    C 
Em    D     G    C
D  

(G)             (C)
She's on my side again
(Em)     (D)       
The easy way
(G)           (C)
I come to my sense 
(Em)             (D)     (G)        (C)
Walking in the downtown talks to my soul
  (G)                  (C)
They won't get lost inside again

(G)   (C)
On my way
(Em)     (D)          (G)              (C)  
I can see it in the darkness combing my mind
(G)        (C)
Well we're here
(Em)            (D) 
Don't get lost inside
(G)                     (C)
Yeah you won't get lost inside at all
(G)          (C)
You're on my way
(D)
woo!
     
************************************

| /   slide up
| \   slide down
| h   hammer-on
| p   pull-off
| ~   vibrato
| +   harmonic
| x   Mute note
| b   Bend
| pb  Pre-bend
| br  Bend release
| pbr Pre-bend release
| brb Bend release bend

************************************
comments
print report bad tab
I want to post or [tab]
guest
You may want to rate the tab now too:
select rating
Please do not post tabs as comments. Select "correction" instead!