Oops, an error
Loading. Please wait.

Red Eyes Tab

1,999 views 312 this week
no commentswrite comment
1 2 3 4 5
excellent!
x 4
add to favorites launch autoscroll
font size
0
reset
Autoscroll
+/-
esc
set tempo
stop
Contributor
Difficulty
intermediate
WARNING: You are trying to view
                                    content from Ultimate-Guitar.com
                                    in an unauthorized application,
                                    which is prohibited.

                                    Please use an official Ultimate
                                    Guitar Tabs application for iPhone,
                                    iPad or Android to access legitimate
                                    chords, guitar, bass, and drum tabs
                                    from Ultimate-Guitar.com database.

                                    Type "ultimate guitar tabs" in Apple
                                    App Store's or Android Market's
                                    search to find the application.
-------------------------------------------------------------------------------
                             Red Eyes ? The War on Drugs
-------------------------------------------------------------------------------
Tabbed by: THL22
E-mail:thijsvanbaalen92@gmail.com

Capo 3

Tuning: standard EADGBe

Intro:                                        First part.     second part
e|---------------------------------------------------------- |---------------------------|
B|---------------------------------------------------------- |---------------------------|
G|-12-12-10-12--12-10?12-12-10-12--15-12-10-12--12--10------ |---------10H12-10----10----|
D|-----------------------------------------------------12--- |---10H12----------12-------|
A|---------------------------------------------------------- |---------------------------|
E|---------------------------------------------------------- |---------------------------|

Something follows the intro after the second part. A little hammer-on on the high strings.
I will edit this if I find out what it is. So bare with me here :-)

When you play a G or  C be sure to hammer that A string 2nd fret with the G 
and the D string 2nd fret.
for the C. Listen to the live version to know how it?s done.
Live: https://www.youtube.com/watch?v=aJdx3BOOEjU
Studio: https://www.youtube.com/watch?v=bsoqmFL1vlU
I used both of these videos to make this tab.

Verse 1
G        C 
Come and see
Em      D         G        C
Where are we, there?s everything
G     C
On my way  
Em        D      G        C
Beat it down to get to my soul
G           C
Against my way
Em   D        G              C
Anyone could tell us you're comin?
G         C
Baby don?t mind
Em          D         G              C
Even on a lie, you can have it your way

(Instrumental)
Bridge:  D       Cmaj7     Cmaj7       

Verse 2
G              C
come and ride away
Em  D          G           C
It easier to stick to the earth
G                   C
Surrounded by the night
Em                  D         G           C
Surrounded by the night, and you don't grow old
G                 C
But you abuse my faith
Em       D         G                C
Losing every time but I don't know where
G              C
You're on my side.
Em            D       G      C
So ride the key wherever it goes
G                 C
I'll be the one, I can't, WHOO!

Guitar solo (it?s not 100% correct but you can follow my gist.)
If somebody has the solo tabbed out please contact me so We can add it to this tab.
e|---------------------------------------------------------------------------|
B|---------------------------------------------------------------------------|
G|----10-12-15-12-10----10--12--10-12--10-------10-------10---12-------------|
D|-12----------------12-------------------12-12----12-12---------------------|
A|---------------------------------------------------------------------------|
E|---------------------------------------------------------------------------|

e|---------------------------------------------------------------------------|
B|-------------------------------------------13--15-13-----------------------|
G|--------------------------------------/15-------------15-12----------------|
D|-10--8--5----5--0--5-5-0--5?-0------------------------------------------|
A|---------------------------------------------------------------------------|
E|---------------------------------------------------------------------------|

e|---------------------------------------------------------------------------|
B|---------------------------------------------------------------------------|
G|--12-----12-12----12-12-----12-12----12-12----12-15------------------------|
D|------15-------15--------15-------15-------15------------------------------|
A|---------------------------------------------------------------------------|
E|---------------------------------------------------------------------------|

e|---------------------------------------------------------------------------|
B|---------------------------------------------------------------------------|
G|--/12---/10--15-12-10------------------------------------------------------|
D|-----------------------12--------------------------------------------------|
A|---------------------------------------------------------------------------|
E|---------------------------------------------------------------------------|


Verse 3
G             C
You're all I've got-away
Em           D       G               C
Running in the dark and I come to my sense
Em             D       G                   C
You can see it in the dark, it's comin' our way
               D
Well we won't get lost inside again

(Instrumental)
Bridge:  D       Cmaj7     Cmaj7   

    
************************************

| /   slide up
| \   slide down
| h   hammer-on
| p   pull-off
| ~   vibrato
| +   harmonic
| x   Mute note
| b   Bend
| pb  Pre-bend
| br  Bend release
| pbr Pre-bend release
| brb Bend release bend

************************************
comments
print report bad tab
I want to post or [tab]
guest
You may want to rate the tab now too:
select rating
Please do not post tabs as comments. Select "correction" instead!