Oops, an error
Loading. Please wait.

Song For Nico Tab

794 views 1 this week
no commentswrite comment
1 2 3 4 5
excellent!
x 1
Autoscroll
+/-
esc
set tempo
stop
Contributor
Difficulty
novice
Hey! There's an official Ultimate Guitar app which is ideal
for learning songs when you're away from computer. Get the app
WARNING: You are trying to view
                                    content from Ultimate-Guitar.com
                                    in an unauthorized application,
                                    which is prohibited.

                                    Please use an official Ultimate
                                    Guitar Tabs application for iPhone,
                                    iPad or Android to access legitimate
                                    chords, guitar, bass, and drum tabs
                                    from Ultimate-Guitar.com database.

                                    Type "ultimate guitar tabs" in Apple
                                    App Store's or Android Market's
                                    search to find the application.
Why has no one written tabs for The Warlocks!?

Guitar 1

E|-2--------------|-3--------------|
B|-3--------------|-3--------------|
G|-2--------------|-0--------------| x2
D|-0--------------|-0--------------|
A|-0--------------|-2--------------|
E|-0--------------|-3--------------|

Guitar 2

E|----------------|----------------|
B|-----/7--7--7-7-|-x--------------| x2
G|----------------|----------------|
D|----------------|----------------|
A|----------------|----------------|
E|----------------|----------------|

=====================================

Guitar 1

E|-2-------3-2-0--|-3--------------|
B|-3-----3--------|-3-------3---3--|
G|-2---2----------|-0---0-----0----| x2
D|-0--------------|-0--------------|
A|-0--------------|-2--------------|
E|-0--------------|-3--------------|

Guitar 2

E|----------------|----------------|
B|------7--7--7-7-|-x--------------|
G|----------------|----------------| x2
D|----------------|----------------|
A|----------------|----------------|
E|----------------|----------------|

=====================================

Guitar 1

E|-2-------3-2-0--|-3--------------|-2-------3-2-0--|-3--------------|
B|-3-----3--------|-3-------3---3--|-3-----3--------|-3-------3---3--|
G|-2---2----------|-0---0-----0----|-2---2----------|-0---0-----0----| x2
D|-0--------------|-0--------------|-0--------------|-0--------------|
A|-0--------------|-2--------------|-0--------------|-2--------------|
E|-0--------------|-3--------------|-0--------------|-3--------------|

Guitar 2

E|----------------|----------------|----------------|----------------|
B|-/7-7-7-7-5-5-5-|-/8-8-8-8-7-5-3-|-/7-7-7-7-5-5-5-|-3--3-3-3-5-3-3-|
G|----------------|----------------|----------------|----------------|
D|----------------|----------------|----------------|----------------|
A|----------------|----------------|----------------|----------------|
E|----------------|----------------|----------------|----------------|

E|----------------|----------------|----------------|----------------|
B|-/7-7-7-7-5-5-5-|-/8-8-8-8-7-5-3-|-/7-7-7-7-5-5-5-|-3--3-3---------|
G|----------------|----------------|----------------|----------------|
D|----------------|----------------|----------------|----------------|
A|----------------|----------------|----------------|----------------|
E|----------------|----------------|----------------|----------------|

=======================================================================

Do the things ...

Guitar 1

E|-2---------------|-3--------------|-2---------------|-3--------------|
B|-3---------------|-3--------------|-3---------------|-3--------------|
G|-2---------------|-0--------------|-2---------------|-0--------------| x6
D|-0---------------|-0--------------|-0---------------|-0--------------|
A|-0---------------|-2--------------|-0---------------|-2--------------|
E|-0---------------|-3--------------|-0---------------|-3--------------|

Guitar 2

E|-12-10-----------|-9-10-----------|-12-10---12-10---|-9h10p9h10p9----|
B|------10---------|------10--------|------10------10-|-------------10-|
G|-----------------|---------9------|-----------------|----------------| x1
D|-----------------|----------------|-----------------|----------------|
A|-----------------|----------------|-----------------|----------------|
E|-----------------|----------------|-----------------|----------------|

E|-12-10-----------|-9-10-----------|-12-10---12-10---|-9h10-----------|
B|------10---------|------10--------|------10------10-|------10b11r10--|
G|-----------------|---------9------|-----------------|--------------9-| x5
D|-----------------|----------------|-----------------|----------------|
A|-----------------|----------------|-----------------|----------------|
E|-----------------|----------------|-----------------|----------------|

========================================================================

Ooooooooohhhhh ... Oooooohhhhhhhhh... You killed my ...

Guitar 1

E|----------------|----------------|
B|----------------|----------------|
G|-6--------------|-4--------------|
D|-5--------------|-3--------------|
A|-7--------------|-5--------------|
E|-5--------------|-3--------------|

====================================

Teardrop ...

Guitar 1

E|-2-------3-2-0--|-3--------------|
B|-3-----3--------|-3-------3---3--|
G|-2---2----------|-0---0-----0----| x4
D|-0--------------|-0--------------|
A|-0--------------|-2--------------|
E|-0--------------|-3--------------|

Guitar 2

E|----------------|----------------|
B|------7--7--7-7-|-x--------------|
G|----------------|----------------| x4
D|----------------|----------------|
A|----------------|----------------|
E|----------------|----------------|

====================================

Ooooooooohhhhh ... Oooooohhhhhhhhh... Hey Hey Hey ...

Guitar 1

E|----------------|----------------|
B|----------------|----------------|
G|-4--------------|-4--------------|
D|-5--------------|-3--------------|
A|-7--------------|-5--------------|
E|-5--------------|-3--------------|

====================================

Guitar 1

E|-2-------3-2-0--|-3--------------|
B|-3-----3--------|-3-------3---3--|
G|-2---2----------|-0---0-----0----| x2
D|-0--------------|-0--------------|
A|-0--------------|-2--------------|
E|-0--------------|-3--------------|

Guitar 2

E|----------------|----------------|
B|------7--7--7-7-|-x--------------|
G|----------------|----------------| x2
D|----------------|----------------|
A|----------------|----------------|
E|----------------|----------------|

====================================

Guitar 1

E|-2-------3-2-0--|-3--------------|-2-------3-2-0--|-3--------------|
B|-3-----3--------|-3-------3---3--|-3-----3--------|-3-------3---3--|
G|-2---2----------|-0---0-----0----|-2---2----------|-0---0-----0----| x2
D|-0--------------|-0--------------|-0--------------|-0--------------|
A|-0--------------|-2--------------|-0--------------|-2--------------|
E|-0--------------|-3--------------|-0--------------|-3--------------|

Guitar 2

E|----------------|----------------|----------------|----------------|
B|-/7-7-7-7-5-5-5-|-/8-8-8-8-7-5-3-|-/7-7-7-7-5-5-5-|-3--3-3-3-5-3-3-|
G|----------------|----------------|----------------|----------------|
D|----------------|----------------|----------------|----------------|
A|----------------|----------------|----------------|----------------|
E|----------------|----------------|----------------|----------------|

E|----------------|----------------|----------------|----------------|
B|-/7-7-7-7-5-5-5-|-/8-8-8-8-7-5-3-|-/7-7-7-7-5-5-5-|-3--3-3---------|
G|----------------|----------------|----------------|----------------|
D|----------------|----------------|----------------|----------------|
A|----------------|----------------|----------------|----------------|
E|----------------|----------------|----------------|----------------|

=======================================================================

Roses are so red ...

Guitar 1

E|-2---------------|-3--------------|-2---------------|-3--------------|
B|-3---------------|-3--------------|-3---------------|-3--------------|
G|-2---------------|-0--------------|-2---------------|-0--------------| x6
D|-0---------------|-0--------------|-0---------------|-0--------------|
A|-0---------------|-2--------------|-0---------------|-2--------------|
E|-0---------------|-3--------------|-0---------------|-3--------------|

Guitar 2

E|-12-10-----------|-9-10-----------|-12-10---12-10---|-9h10p9h10p9----|
B|------10---------|------10--------|------10------10-|-------------10-|
G|-----------------|---------9------|-----------------|----------------| x1
D|-----------------|----------------|-----------------|----------------|
A|-----------------|----------------|-----------------|----------------|
E|-----------------|----------------|-----------------|----------------|

E|-12-10-----------|-9-10-----------|-12-10---12-10---|-9h10-----------|
B|------10---------|------10--------|------10------10-|------10b11r10--|
G|-----------------|---------9------|-----------------|--------------9-| x5
D|-----------------|----------------|-----------------|----------------|
A|-----------------|----------------|-----------------|----------------|
E|-----------------|----------------|-----------------|----------------|

========================================================================

Ooooooooohhhhh ... Oooooohhhhhhhhh... You killed my ...

Guitar 1

E|----------------|----------------|
B|----------------|----------------|
G|-6--------------|-4--------------|
D|-5--------------|-3--------------|
A|-7--------------|-5--------------|
E|-5--------------|-3--------------|

====================================

Teardrop ...

Guitar 1

E|-2-------3-2-0--|-3--------------|
B|-3-----3--------|-3-------3---3--|
G|-2---2----------|-0---0-----0----| x4
D|-0--------------|-0--------------|
A|-0--------------|-2--------------|
E|-0--------------|-3--------------|

Guitar 2

E|----------------|----------------|
B|------7--7--7-7-|-x--------------|
G|----------------|----------------| x4
D|----------------|----------------|
A|----------------|----------------|
E|----------------|----------------|

====================================

Ooooooooohhhhh ... Oooooohhhhhhhhh... Hey Hey Hey ...

Guitar 1

E|----------------|----------------|
B|----------------|----------------|
G|-6--------------|-4--------------|
D|-5--------------|-3--------------|
A|-7--------------|-5--------------|
E|-5--------------|-3--------------|

====================================

Guitar 1

This is repeated before the solo.

E|-2-------3-2-0--|-3--------------|
B|-3-----3--------|-3-------3---3--|
G|-2---2----------|-0---0-----0----|
D|-0--------------|-0--------------|
A|-0--------------|-2--------------|
E|-0--------------|-3--------------|

Guitar 2 (Solo)

E|--------------------------------------------------------------------------|
B|--------------------------------------------------------------------------|
G|--------------------------------------------------------------------------|
D|--------------------------12-14-14-14b15r14p12-12--12-12-12-12-12-x-------|
A|-/12-12-12-12-12-12-12-14------------------------14-----------------12-14-|
E|--------------------------------------------------------------------------|

E|--------------------------------------------------------------------------|
B|--------------------------------------------------------------------------|
G|-------------------------------------------14b16-14-----------------------|
D|-------------------------------12/14-14-14----------14p12-12-12b14-12b14--|
A|-12-12-12-12-12-12-12-12-12/14--------------------------------------------|
E|--------------------------------------------------------------------------|

E|--------------------------------------------------------------------------|
B|--------------------------------------------------------------------------|
G|------------------------------------------14b16-16-16-16-16-16------------|
D|------------------14-14-12h14-14-14b16-16---------------------14-12-12-12-|
A|-x-12/14-14-14-14---------------------------------------------------------|
E|--------------------------------------------------------------------------|

E|------------------------------------------------------------------------x-|
B|------------------------------------------------------------------------x-|
G|----------------x--------14b16-16-16-16-16r14-14--------12-12-12---12---x-|
D|-12h14-14-14-14--------------------------------------------------14-----x-|
A|------------------------------------------------------------------------x-|
E|------------------------------------------------------------------------x-|

Let strings ring with plenty of feedback!

Wow, that took ages! Enjoy :D
comments
We did not receive enough feedback on this tab! Please rate:
print report bad tab
1 2 3 4 5
I want to post or [tab]
guest
You may want to rate the tab now too:
select rating
Please do not post tabs as comments. Select "correction" instead!