Oops, an error
Loading. Please wait.

Wicked Games Tab

50,264 views 337 this week
2 commentsread comments
1 2 3 4 5
excellent!
x 9
Autoscroll
+/-
esc
set tempo
stop
Difficulty
novice
WARNING: You are trying to view
                                    content from Ultimate-Guitar.com
                                    in an unauthorized application,
                                    which is prohibited.

                                    Please use an official Ultimate
                                    Guitar Tabs application for iPhone,
                                    iPad or Android to access legitimate
                                    chords, guitar, bass, and drum tabs
                                    from Ultimate-Guitar.com database.

                                    Type "ultimate guitar tabs" in Apple
                                    App Store's or Android Market's
                                    search to find the application.
-Tabbed by Jefrey Judes-

99% sure it's perfect
Play tab throughout song, strum if you really want to.

   (1)     (2)     (3)     (4)
      
e|--2-------2-------2-------3---------------------------|
B|--3-------3-------3-------3---------------------------|
G|--4-------4-------4-------4---------------------------|
D|--4-------4-------4-------5---------------------------|
A|--2-------0-------x-------5---------------------------|
E|--x-------x-------3-------3---------------------------|
(Am Bar2)   -       -   (E Bar 3) 
   Bm      Bm7    Bmsus6    G         


   [1]               [2]               
e|--------------2~------------------2~------------------|
B|-----------3-------------------3----------------------|
G|--------4-------------------4-------------------------|
D|-----4-------------------4----------------------------|
A|--2---------------2---0-------------------------------|
E|------------------------------------------------------|

    [3]                   [4]
e|------2---------------------------------3~------------|
B|---------3---------------------------3----------------|
G|------------4-----4~--------------4-------------------|
D|---------------4---------------5----------------------|
A|--0---------------------0-----------------------------|
E|------3---------------------3-------------------------|


Repeat as necessary. Enjoy :)

[Legend]
~ Vibrato (Appears on last note of each chord)
comments
print report bad tab
2 comments total.
+6 reply
MischaFD wrote on January 1 2012, 01:03 pm

This is awesome, but I think 3 is actually

 
e|------2---------------------------------3~------------|
B|---------3---------------------------3----------------|
G|------------4-----4~--------------4-------------------|
D|---------------4---------------5----------------------|
A|--0---------------------0-----------------------------|
E|------4---------------------3-------------------------|

0 reply
JefreyJ wrote on April 6 2013, 03:18 pm

MischaFD is actually right. Also, Bsus6 was a typo and isn't a real chord at all; the chord is Bm/G#. Unfortunately, I didn't have an account at the time, so I can't edit anymore. Sorry about that, and thanks for the correction.

I want to post or [tab]
guest
You may want to rate the tab now too:
select rating
Please do not post tabs as comments. Select "correction" instead!