Oops, an error
Loading. Please wait.

Stars Tab

3,865 views 12 this week
no commentswrite comment
1 2 3 4 5
excellent!
x 1
Autoscroll
+/-
esc
set tempo
stop
Contributor
WARNING: You are trying to view
                                    content from Ultimate-Guitar.com
                                    in an unauthorized application,
                                    which is prohibited.

                                    Please use an official Ultimate
                                    Guitar Tabs application for iPhone,
                                    iPad or Android to access legitimate
                                    chords, guitar, bass, and drum tabs
                                    from Ultimate-Guitar.com database.

                                    Type "ultimate guitar tabs" in Apple
                                    App Store's or Android Market's
                                    search to find the application.
-------------------------------------------------------------------------------
			     STARS - The Weepies
-------------------------------------------------------------------------------

Artist:		The Weepies
Song:		Stars
Album:		Say I Am You
Year:		2006

Tabbed by:	Tyler Rodrigues
Email:		tyler.rodrigues@gmail.com


Capo 2

Tuning: Standard
[Note: to make it easier to play (if your thumbs aren't long enough) you 
can tune the low E string half a step down to Eb.]

All chords and notes are reative to the capo.


[Intro]
   A                A/G              Dm/F#            Dm/F
e|----------------|----------------|----------------|----------------|
B|-2--------2-----|-2--------2-----|-3--------3-----|-3--------3-----|
G|----2--------2--|----2--------2--|----2--------2--|----2--------2--|
D|-------2--------|-------2--------|-------0--------|-------0--------|
A|-0--------------|----------------|----------------|----------------|
D|----------------|-3--------------|-2--------------|-1--------------| x2


[Verse 1]
   A                A/G              Dm/F#            Dm/F
e|----------------|----------------|----------------|----------------|
B|-2--------2-----|-2--------2-----|-3--------3-----|-3--------3-----|
G|----2--------2--|----2--------2--|----2--------2--|----2--------2--|
D|-------2--------|-------2--------|-------0--------|-------0--------|
A|-0--------------|----------------|----------------|----------------|
D|----------------|-3--------------|-2--------------|-1--------------| x3
   Tange-           rines are        hanging       heavy
   Glowing          marigolden       hues
   Teasing a        half-pale        moon

   E                Esus4              E                Esus4
e|----------------|------------------|----------------|------------------|
B|-------0--------|---------0--------|-------0--------|---------0--------|
G|-1--------1-----|-1h2--------2-----|-1--------1-----|-1h2--------2-----|
D|----------------|------------------|----------------|------------------|
A|----2--------2--|------2--------2--|----2--------2--|------2--------2--|
D|-0--------------|-0----------------|-0--------------|-0----------------| x1
   And I feel a     pull to the        blue-velvet      dark and st-


   A                A/G              Dm/F#            Dm/F
e|----------------|----------------|----------------|----------------|
B|-2--------2-----|-2--------2-----|-3--------3-----|-3--------3-----|
G|----2--------2--|----2--------2--|----2--------2--|----2--------2--|
D|-------2--------|-------2--------|-------0--------|-------0--------|
A|-0--------------|----------------|----------------|----------------|
D|----------------|-3--------------|-2--------------|-1--------------| x1
   ars,	                             stars,

   E                Esus4           E                Esus4
e|----------------|---------------|----------------|------------|
B|----------0-----|---------------|----------0-----|------------|
G|-1-----1-----1--|-1h2-----2-----|-1-----1-----1--|-1h2-----1--|
D|----------------|---------------|----------------|------------|
A|----2-----------|------2-----2--|----2-----------|------2-----|
D|-0--------------|-0-------------|-0--------------|-0----------| x1
   stars


[Verse 2]
   A                A/G              Dm/F#            Dm/F
e|----------------|----------------|----------------|----------------|
B|-2--------2-----|-2--------2-----|-3--------3-----|-3--------3-----|
G|----2--------2--|----2--------2--|----2--------2--|----2--------2--|
D|-------2--------|-------2--------|-------0--------|-------0--------|
A|-0--------------|----------------|----------------|----------------|
D|----------------|-3--------------|-2--------------|-1--------------| x3
   Pink Mag-        nolia,           blushing and     coy
   Savors the       sun while she    shines
   You've got       yours and I've got mine

   E                Esus4              E                Esus4
e|----------------|------------------|----------------|---------------|
B|-------0--------|---------0--------|-------0--------|---------------|
G|-1--------1-----|-1h2--------2-----|-1--------1-----|-1h2-----2-----|
D|----------------|------------------|----------------|---------------|
A|----2--------2--|------2--------2--|----2--------2--|------2-----2--|
D|-0--------------|-0----------------|-0--------------|-0-------------| x1
 Together we        glide through the  blue-velvet      dark and st-

   A                A/G              Dm/F#            Dm/F
e|----------------|----------------|----------------|----------------|
B|-2--------2-----|-2--------2-----|-3--------3-----|-3--------3-----|
G|----2--------2--|----2--------2--|----2--------2--|----2--------2--|
D|-------2--------|-------2--------|-------0--------|-------0--------|
A|-0--------------|----------------|----------------|----------------|
D|----------------|-3--------------|-2--------------|-1--------------| x1
   ars,                              stars,

   E                Esus4           E                Esus4
e|----------------|---------------|----------------|------------|
B|----------0-----|---------------|----------0-----|------------|
G|-1-----1-----1--|-1h2-----2-----|-1-----1-----1--|-1h2-----1--|
D|----------------|---------------|----------------|------------|
A|----2-----------|------2-----2--|----2-----------|------2-----|
D|-0--------------|-0-------------|-0--------------|-0----------| x1
   stars

   A                A/G              Dm/F#            Dm/F
e|----------------|----------------|----------------|----------------|
B|-2--------2-----|-2--------2-----|-3--------3-----|-3--------3-----|
G|----2--------2--|----2--------2--|----2--------2--|----2--------2--|
D|-------2--------|-------2--------|-------0--------|-------0--------|
A|-0--------------|----------------|----------------|----------------|
D|----------------|-3--------------|-2--------------|-1--------------| x1
   All it           takes is a       little fai-      th, and a

   E                Esus4           E                Esus4
e|----------------|---------------|----------------|----------|
B|----------0-----|---------------|----------0-----|----------|
G|-1-----1-----1--|-1h2-----2-----|-1-----1-----1--|-2-----1--|
D|----------------|---------------|----------------|----------|
A|----2-----------|------2-----2--|----2-----------|----------|
D|-0--------------|-0-------------|-0--------------|-0--------| x1
   lot of heart


[Bridge]
   D                Dsus4            D                Dsus4
e|-2--------2-----|-3--------3-----|-2--------2-----|-3-----2-----|
B|----3--------3--|----3--------3--|----3--------3--|----2-----2--|
G|-------2--------|-------2--------|-------2--------|-------------|
D|-0--------------|-0--------------|-0--------------|-0-----------|
A|----------------|----------------|----------------|-------------|
D|----------------|----------------|----------------|-------------| x1
   Back and         forth we         ply these        oars, They

   A                Asus4            A                Asus4
e|----------------|----------------|----------------|-------------|
B|-2--------2-----|-3--------3-----|-2--------2-----|-3-----2-----|
G|----2--------2--|----2--------2--|----2--------2--|----2-----2--|
D|-------2--------|-------2--------|-------2--------|-------------|
A|-0--------------|-0--------------|-0--------------|-0-----------|
D|----------------|----------------|----------------|-------------| x1
   move in          time and         get en-          twined

   D                Dsus4            D                Dsus4
e|-2--------2-----|-3--------3-----|-2--------2-----|-3-----2--|
B|----3--------3--|----3--------3--|----3--------3--|----------|
G|-------2--------|-------2--------|-------2--------|----------|
D|-0--------------|-0--------------|-0--------------|-0--------|
A|----------------|----------------|----------------|----------|
D|----------------|----------------|----------------|----------| x1
   Green with       joy then         gray with        sorrow

   A                Asus4            A                Asus4
e|----------------|----------------|----------------|-------------|
B|-2--------2-----|-3--------3-----|-2--------2-----|-3-----2-----|
G|----2--------2--|----2--------2--|----2--------2--|----2-----2--|
D|-------2--------|-------2--------|-------2--------|-------------|
A|-0--------------|-0--------------|-0--------------|-0-----------|
D|----------------|----------------|----------------|-------------| x1
   Ripened          fruit that       falls to-        morrow

   E                E                Esus4            E
e|----------------|----------------|----------------|-----------|
B|----------0-----|----------0-----|-0--------0-----|-----------|
G|-1-----1-----1--|-1-----1-----1--|----2--------2--|-1---------|
D|----------------|----------------|----------------|-----------|
A|----2-----------|----2-----------|-------2--------|-----------|
D|-0--------------|-0--------------|-0--------------|-0---------| x1
   Filling us                 with   brilliance


[Interlude]
Same as Intro (x1)


[Verse 3]
   A                A/G              Dm/F#            Dm/F
e|----------------|----------------|----------------|----------------|
B|-2--------2-----|-2--------2-----|-3--------3-----|-3--------3-----|
G|----2--------2--|----2--------2--|----2--------2--|----2--------2--|
D|-------2--------|-------2--------|-------0--------|-------0--------|
A|-0--------------|----------------|----------------|----------------|
D|----------------|-3--------------|-2--------------|-1--------------| x3
   Branches are     bare with a      pulse under-     neath
   Flowering        slowly in-       side
   Your hands are   warm and my      body is          wide

   E                Esus4              E                Esus4
e|----------------|----------------|----------------|---------------|
B|-------0--------|-------0--------|-------0--------|---------------|
G|-1--------1-----|-2--------2-----|-1--------1-----|-1h2-----2-----|
D|----------------|----------------|----------------|---------------|
A|----2--------2--|----2--------2--|----2--------2--|------2-----2--|
D|-0--------------|-0--------------|-0--------------|-0-------------| x1
To hold all the     promise of       blue-velvet      dark and st-

   A                A/G              Dm/F#            Dm/F
e|----------------|----------------|----------------|----------------|
B|-2--------2-----|-2--------2-----|-3--------3-----|-3--------3-----|
G|----2--------2--|----2--------2--|----2--------2--|----2--------2--|
D|-------2--------|-------2--------|-------0--------|-------0--------|
A|-0--------------|----------------|----------------|----------------|
D|----------------|-3--------------|-2--------------|-1--------------| x1
   ars,                              stars,

   E                Esus4           E                Esus4
e|----------------|---------------|----------------|----------|
B|----------0-----|---------------|----------0-----|----------|
G|-1-----1-----1--|-1h2-----2-----|-1-----1-----1--|-2-----1--|
D|----------------|---------------|----------------|----------|
A|----2-----------|------2-----2--|----2-----------|----2-----|
D|-0--------------|-0-------------|-0--------------|-0--------| x1
   stars

   A                A/G              Dm/F#            Dm/F
e|----------------|----------------|----------------|----------------|
B|-2--------2-----|-2--------2-----|-3--------3-----|-3--------3-----|
G|----2--------2--|----2--------2--|----2--------2--|----2--------2--|
D|-------2--------|-------2--------|-------0--------|-------0--------|
A|-0--------------|----------------|----------------|----------------|
D|----------------|-3--------------|-2--------------|-1--------------| x1
   All it           takes is a       little fai-      th and a

   E                Esus4           E                Esus4
e|----------------|---------------|----------------|------------|
B|----------0-----|---------------|----------0-----|------------|
G|-1-----1-----1--|-1h2-----2-----|-1-----1-----1--|-1h2-----1--|
D|----------------|---------------|----------------|------------|
A|----2-----------|------2-----2--|----2-----------|------2-----|
D|-0--------------|-0-------------|-0--------------|-0----------| x1
   lot of heart                                         Sweetheart

[outro]
Same as Intro (x2)

End on A


Lyrics:
------

Tangerines are hanging heavy
Glowing marigolden hues
Teasing a half-pale moon
And I feel a pull to the blue-velvet dark and stars, stars, stars

Pink Magnolia, blushing and coy
Savors the sun while she shines
You've got yours and I've got mine
Together we glide through the blue-velvet dark and stars, stars, stars
All it takes is a little faith, and a lot of heart

Back and forth we ply these oars
They move in time and get entwined
Green with joy then gray with sorrow
Ripened fruit that falls tomorrow
Filling us with brilliance

Branches are bare with a pulse underneath
Flowering slowly inside
Your hands are warm and my body is wide
To hold all the promise of blue-velvet dark and stars, stars, stars

All it takes is a little faith and a lot of heart
Sweetheart
comments
We did not receive enough feedback on this tab! Please rate:
1 2 3 4 5
I want to post or [tab]
guest
You may want to rate the tab now too:
select rating
Please do not post tabs as comments. Select "correction" instead!