Oops, an error
Loading. Please wait.

Shelter Bass Tab

5,500 views 12 this week
1 commentread comment
1 2 3 4 5
worth learning
x 4
Autoscroll
+/-
esc
set tempo
stop
Contributor
Difficulty
novice
WARNING: You are trying to view
                                    content from Ultimate-Guitar.com
                                    in an unauthorized application,
                                    which is prohibited.

                                    Please use an official Ultimate
                                    Guitar Tabs application for iPhone,
                                    iPad or Android to access legitimate
                                    chords, guitar, bass, and drum tabs
                                    from Ultimate-Guitar.com database.

                                    Type "ultimate guitar tabs" in Apple
                                    App Store's or Android Market's
                                    search to find the application.
Verse:
"I find shelter..."
G------------------------------------------------------------------------|
D------------------------------------------------------------------------|
A-----3---3-3--3-3-----3---3-3---3--3-3--3---3---3-3--3-3----------------|
E-------------------------------------------------------------5--5-5--3--|

Chorus:
"Maybe I had said..."
G----------------------------------|
D----------------------------------|
A--8}x16--5}x16--0}x16--3}x16------|
E----------------------------------|

Guitar Solo:
G-----------------------------------------------------------------------|
D-----------------------------------------------------------------------|
A-------------------3---3-3---3--3-3--3-----5---5-5--5-5----------------|
E--5---5-5--5-5----------------------------------------------5--5-5--3--|

Verse:
"Could I be..."
G------------------------------------------------------------------------|
D------------------------------------------------------------------------|
A-----3---3-3--3-3-----3---3-3---3--3-3--3---3---3-3--3-3----------------|
E-------------------------------------------------------------5--5-5--3--|

From the end of the verse to Chorus:
"So you can see the way I feel it too."
G----------------------------------|
D----------------------------------|
A--8}x16--5}x16--0}x16--3}x16------|
E----------------------------------|

Guitar Solo:
G-----------------------------------------------------------------------|
D-----------------------------------------------------------------------|
A-------------------3---3-3---3--3-3--3-----5---5-5--5-5----------------|
E--5---5-5--5-5----------------------------------------------5--5-5--3--|

Chorus(Even though the guitar solo plays again the bass plays the chorus again):
"Maybe I had said..."
G----------------------------------|
D----------------------------------|
A--8}x16--5}x16--0}x16--3}x16------|
E----------------------------------|
comments
print report bad tab
1 comment total.
0 reply
EmoPikaPunk wrote on June 20 2013, 10:40 am

Great tab! I love this song, going to use it for a performance now!

I want to post or [tab]
guest
You may want to rate the tab now too:
select rating
Please do not post tabs as comments. Select "correction" instead!