Oops, an error
Loading. Please wait.

Dominion Tab

531 views 1 this week
no commentswrite comment
1 2 3 4 5
excellent!
x 2
Autoscroll
+/-
esc
set tempo
stop
Contributor
Hey! There's an official Ultimate Guitar app which is ideal
for learning songs when you're away from computer. Get the app
WARNING: You are trying to view
                                    content from Ultimate-Guitar.com
                                    in an unauthorized application,
                                    which is prohibited.

                                    Please use an official Ultimate
                                    Guitar Tabs application for iPhone,
                                    iPad or Android to access legitimate
                                    chords, guitar, bass, and drum tabs
                                    from Ultimate-Guitar.com database.

                                    Type "ultimate guitar tabs" in Apple
                                    App Store's or Android Market's
                                    search to find the application.
Artist: Theatres Des Vampires 
Song: Dominion
Album: Bloody Lunatic Asylum
Tuning: Standard 
http://www.theatres-des-vampires.com/


e|---------------------------------------------------------| x2
B|---------------------------------------------------------|
G|---------4--5-------------4--5---------------------------|
D|--2------4--5-------2-----4--5---4--5--4(tr5)------------|
A|--2------2--3-------2-----2--3---------------------------|
E|--0-----------------0------------------------------------|



e|---------------------------------------------------------| x4
B|---------------------------------------------------------|
G|---------------------4--5---5--5--5--5--5--5--5----------|
D|--2----2--2--2-------4--5---5--5--5--5--5--5--5----------|
A|--2----2--2--2-------2--3---3--3--3--3--3--3--3----------|
E|--0----0--0--0-------------------------------------------|



e|-------------------------------------------------| x4
B|-------------------------------------------------|
G|------------------------4--5----5--5--5----------|
D|--2---2-2-2--2-2-2------4--5----5--5--5----------|
A|--2---2-2-2--2-2-2------2--3----3--3--3----------|
E|--0---0-0-0--0-0-0-------------------------------|
  


e|-----------------------------------------------------------------------------| 
B|-----------------------------------------------------------------------------|x8
G|-----------------------------------------------------------------------------|
D|------------5-5-5-5--4-4-4-4--7-7-7-7--5-5-5-5--9-9-9-9--7-7-7-7--5-5-5-5----|
A|--7-7-7-7--------------------------------------------------------------------|
E|-----------------------------------------------------------------------------|



e|-----------------------------------------------------------------------------| 
B|-----------------------------------------------------------------------------|x8
G|-----------------------------------------------------------------------------|
D|-----------5-5-5-5--4-4-4-4--7-7-7-7--5-5-5-5--9-9-9-9--7-7-7-7--5-5-5-5-----|
A|--7-7-7-7--------------------------------------------------------------------|
E|-----------------------------------------------------------------------------|
 |
 |
e|-----------------------------------------------------------------------------| 
B|-----------------------------------------------------------------------------|x8
G|-----------4-4-4-4--2-2-2-2--5-5-5-5--4-4-4-4--7-7-7-7--5-5-5-5--4-4-4-4-----|
D|--5-5-5-5--------------------------------------------------------------------|
A|-----------------------------------------------------------------------------|
E|-----------------------------------------------------------------------------|



e|---------------------------------------------------------------------------------------------------------| 
B|---------------------------------------------------------------------------------------------------------|x2
G|--4----4--4--4--4--4--4--4--4--4--4--4--4--4--4--------------------------2---2--2--2--2--2--2--2--2------|
D|--4----4--4--4--4--4--4--4--4--4--4--4--4--4--4----5----5--5--5--5--5----2---2--2--2--2--2--2--2--2------|
A|--2----2--2--2--2--2--2--2--2--2--2--2--2--2--2----5----5--5--5--5--5----0---0--0--0--0--0--0--0--0------|
E|---------------------------------------------------3----3--3--3--3--3------------------------------------|
         



e|---------------------------------------------------------------------------------------------------------| 
B|---------------------------------------------------------------------------------------------------------|x4
G|--4----4--4--4--4--4--4--4--4--4--4--4--4--4--4--------------------------2---2--2--2--2--2--2--2--2------|
D|--4----4--4--4--4--4--4--4--4--4--4--4--4--4--4----5----5--5--5--5--5----2---2--2--2--2--2--2--2--2------|
A|--2----2--2--2--2--2--2--2--2--2--2--2--2--2--2----5----5--5--5--5--5----0---0--0--0--0--0--0--0--0------|
E|---------------------------------------------------3----3--3--3--3--3------------------------------------|
 |        
 |
e|---------------------------------------------------------------------------------------------------------|
B|---------------------------------------------------------------------------------------------------------|
G|--4~~-----------------7------6------4-------------------------------7----9----7----6----7----------------|
D|---------------------------------------------------5~~---------------------------------------------------|
A|---------------------------------------------------------------------------------------------------------|
E|---------------------------------------------------------------------------------------------------------|




e|-------------------------------------------------------------------------------------------------------------| 
B|-------------------------------------------------------------------h---p-------------------------------------|x2
G|-----7--6--7--9--7--6--7-------7--6--7--9--7--6--7-------7--6--4--4--6--4-------------7--6--4--6/7\6---------|
D|--9-------------------------9-------------------------5--------------------7--5----7-------------------------|
A|-------------------------------------------------------------------------------------------------------------|
E|-------------------------------------------------------------------------------------------------------------|
 |  
 |
e|-------------------------------------------------------------------------------------------------------------|
B|-------------------------------------------------------------------------------------------------------------|
G|--2--4-----------------------2--4---------------------4--------------------------------2---------------------|
D|--2--4-----------------------2--4---------------------4--5--------------------------5--2---------------------|
A|--0--2-----------------------0--2---------------------2--5--------------------------5--0---------------------|
E|---------------------------------------------------------3--------------------------3------------------------|



e|-------------------------------------------------------------------------------------------------------------| 
B|-------------------------------------------------------------------h---p-------------------------------------|x4
G|-----7--6--7--9--7--6--7-------7--6--7--9--7--6--7-------7--6--4--4--6--4-------------7--6--4--6/7\6---------|
D|--9-------------------------9-------------------------5--------------------7--5----7-------------------------|
A|-------------------------------------------------------------------------------------------------------------|
E|-------------------------------------------------------------------------------------------------------------|
 |  
 |
e|-------------------------------------------------------------------------------------------------------------|
B|-------------------------------------------------------------------------------------------------------------|
G|--4--------------------------------------------------------------------------------2-------------------------|
D|--4----------------------------------------------------5---------------------------2-------------------------|
A|--2----------------------------------------------------5---------------------------0-------------------------|
E|-------------------------------------------------------3-----------------------------------------------------|



e|---------------------------------------------------------------------------------------------------------| 
B|---------------------------------------------------------------------------------------------------------|x4
G|--4----4--4--4--4--4--4--4--4--4--4--4--4--4--4--------------------------2---2--2--2--2--2--2--2--2------|
D|--4----4--4--4--4--4--4--4--4--4--4--4--4--4--4----5----5--5--5--5--5----2---2--2--2--2--2--2--2--2------|
A|--2----2--2--2--2--2--2--2--2--2--2--2--2--2--2----5----5--5--5--5--5----0---0--0--0--0--0--0--0--0------|
E|---------------------------------------------------3----3--3--3--3--3------------------------------------|
 |      
 |
e|---------------------------------------------------------------------------------------------------------|
B|---------------------------------------------------------------------------------------------------------|
G|--4~~-----------------7------6------4-------------------------------7----9----7----6----7----------------|
D|---------------------------------------------------5~~---------------------------------------------------|
A|---------------------------------------------------------------------------------------------------------|
E|---------------------------------------------------------------------------------------------------------|





e|-------------0-----------------------0-----------------------0-------------------0------------|
B|----------0------0---------------0------0-----------------------0-------------------0---------|
G|-------2------------2----------2-------------0---------------------2-------------------2------|
D|-----2----------------------2-----------------------------3-------------------3---------------|
A|--0----------------------0-----------------------------3-------------------3------------------|
E|----------------------------------------------------1-------------------1---------------------|
 |
 |
 |
e|------------------------------------------------------------------------------------|
B|------------------------------------------------------------------------------------|
G|--2~~----------------------------------------5~~------------------------------------|
D|------------------------------------------------------------------------------------|
A|------------------------------------------------------------------------------------|
E|------------------------------------------------------------------------------------|



e|-------------0-----------------------0-----------------------0-------------------0------------|
B|----------0------0---------------0------0-----------------------0-------------------0---------|
G|-------2------------2----------2-------------0---------------------2-------------------2------|
D|-----2----------------------2-----------------------------3-------------------3---------------|
A|--0----------------------0-----------------------------3-------------------3------------------|
E|----------------------------------------------------1-------------------1---------------------|




e|-------------0-----------------------0------------------------0-------------------0-------------|
B|----------0------0---------------0------0-------------------------0-------------------0---------|
G|-------2------------2----------2-------------0-----------------------2-------------------2------|
D|-----2----------------------2-------------------------------3-------------------3---------------|
A|--0----------------------0-------------------------------3-------------------3------------------|
E|------------------------------------------------------1-------------------1---------------------|
 |
 |
e|------------------------------------------------------------------------------------------------|
B|------------------------------------------------------------------------------------------------|
G|------------------------------------------------------2-----------------------------------------|
D|--2--2-2-2--2--2-2------2--2-2-2--2--2--2--2-2-2-2----3-----------------------------------------|
A|--0--0-0-0--0--0-0------0--0-0-0--0--0--0--0-0-0-0----3-----------------------------------------|
E|------------------------------------------------------1-----------------------------------------|
    *  * * *  *  * *      *  * * *  *  *  *  * * * * 




e|-------------0-----------------------0-----------------------0-------------------0------------|
B|----------0------0---------------0------0-----------------------0-------------------0---------|
G|-------2------------2----------2-------------0---------------------2-------------------2------|
D|-----2----------------------2-----------------------------3-------------------3---------------|
A|--0----------------------0-----------------------------3-------------------3------------------|
E|----------------------------------------------------1-------------------1---------------------|
 |
 |
 |
e|------------------------------------------------------------------------------------|
B|------------------------------------------------------------------------------------|
G|--2~~----------------------------------------5~~------------------------4~~---------|
D|------------------------------------------------------------------------------------|
A|------------------------------------------------------------------------------------|
E|------------------------------------------------------------------------------------|



e|-------------0-----------------------0-----------------------0-------------------0------------| 
B|----------0------0---------------0------0-----------------------0-------------------0---------|x6
G|-------2------------2----------2-------------0---------------------2-------------------2------|
D|-----2----------------------2-----------------------------3-------------------3---------------|
A|--0----------------------0-----------------------------3-------------------3------------------|
E|----------------------------------------------------1-------------------1---------------------|
 |
 |
e|--0-------------------------------------------------0-----------------------------------------|
B|--0-------------------------------------------------0-----------------------------------------|
G|--2-------------------------------------------------2-----------------------------------------|
D|--2-------------------------------------------------3-----------------------------------------|
A|--0-------------------------------------------------3-----------------------------------------|
E|----------------------------------------------------1-----------------------------------------|



e|---------------------------------------------------------------------------------------------------------| 
B|---------------------------------------------------------------------------------------------------------|x2
G|--4----4--4--4--4--4--4--4--4--4--4--4--4--4--4--------------------------2---2--2--2--2--2--2--2--2------|
D|--4----4--4--4--4--4--4--4--4--4--4--4--4--4--4----5----5--5--5--5--5----2---2--2--2--2--2--2--2--2------|
A|--2----2--2--2--2--2--2--2--2--2--2--2--2--2--2----5----5--5--5--5--5----0---0--0--0--0--0--0--0--0------|
E|---------------------------------------------------3----3--3--3--3--3------------------------------------|




e|---------------------------------------------------------------------------------------------------------| 
B|---------------------------------------------------------------------------------------------------------|
G|--4----4--4--4--4--4--4--4--4--4--4--4--4--4--4--------------------------2---2--2--2--2--2--2--2--2------|
D|--4----4--4--4--4--4--4--4--4--4--4--4--4--4--4----5----5--5--5--5--5----2---2--2--2--2--2--2--2--2------|
A|--2----2--2--2--2--2--2--2--2--2--2--2--2--2--2----5----5--5--5--5--5----0---0--0--0--0--0--0--0--0------|
E|---------------------------------------------------3----3--3--3--3--3------------------------------------|
 |         
 |
 |
e|---------------------------------------------------------------------------------------------------------|
B|---------------------------------------------------------------------------------------------------------|
G|--4~~-----------------7------6------4-------------------------------7----9----7----6----7----------------|
D|---------------------------------------------------5~~---------------------------------------------------|
A|---------------------------------------------------------------------------------------------------------|
E|---------------------------------------------------------------------------------------------------------|



e|---------------------------------|
B|---------------------------------|
G|---------------------------------|
D|--4--4--4--4------4--4-----------|
A|--2--2--2--2------2--2-----------|
E|---------------------------------|



:----Key-----:

(tr x) = Trill to specified note(x)
 /     = Slide up
 \     = Slide down
 *     = Palm Mute
|-3-|  = Triplet
 ~     = Virbrato
 h     = Hammer on
 p     = Pull off
comments
We did not receive enough feedback on this tab! Please rate:
print report bad tab
1 2 3 4 5
I want to post or [tab]
guest
You may want to rate the tab now too:
select rating
Please do not post tabs as comments. Select "correction" instead!