Oops, an error
Loading. Please wait.

Bandoliers Bass Tab

ver2
ver2

Whole song

More versions @911Tabs.com
2,679 views 3 this week
no commentswrite comment
1 2 3 4 5
please rate
Autoscroll
+/-
esc
set tempo
stop
Difficulty
advanced
WARNING: You are trying to view
                                    content from Ultimate-Guitar.com
                                    in an unauthorized application,
                                    which is prohibited.

                                    Please use an official Ultimate
                                    Guitar Tabs application for iPhone,
                                    iPad or Android to access legitimate
                                    chords, guitar, bass, and drum tabs
                                    from Ultimate-Guitar.com database.

                                    Type "ultimate guitar tabs" in Apple
                                    App Store's or Android Market's
                                    search to find the application.
Ok, well I couldn't find any good tabs for the song, so heres mine. im not sure 
it's 100% accurate, but if you listen very closely to the song, its pretty accurate. 

Bandoliers Bass Tab by Matt

G|--------------------------------------------------------------|
D|------------------------------------------------------5-7-7---|
A|-0-0-0--3-3-3--5-5-5--3-3-3--0-0-0--3-3-3--5-5-5--3-3---------|
E|--------------------------------------------------------------|

  Oh it’s too late...
G|--------------------------------------------------------------|
D|------------------------------------------------------7-5-7---|
A|-0-0-0--3-3-3--5-5-5--3-3-3--0-0-0--3-3-3--5-5-5--3-3---------|
E|--------------------------------------------------------------|

                                   
G|--------------------------------------------------------------|
D|-------------------------------3-3-3---3---3-2-2-2-2----------|
A|-0-0-0--3-3-3--5-5-5--3-3-3--3-------3---3-----------3/5-5-5--|
E|--------------------------------------------------------------|


G|--------------------------------------------------------------|
D|-----------------------------------------------------5-7-5-7--|
A|-0-0-0--3-3-3--5-5-5--3-3-3--0-0-0--3-3-3--5-5-5--3-----------|
E|--------------------------------------------------------------|


G|--------------------------------------------------------------|
D|-------------------------------3-3-3---3---3-2-2-2-2----------|
A|-0-0-0--3-3-3--5-5-5--3-3-3--3-------3---3-----------3/5-5-5--|
E|--------------------------------------------------------------|

  Bandoliers...
G|--------------------------------------------------------------|
D|-----------------------------------------------------6-7-6----| 
A|-7-------------7-----7------8-7-----8-7-----8-7------------8--|
E|----7-7--7-5-7---5-7---5-7------7-8-----8-7-----10-8----------|


G|--------------------------------------------------------------|
D|--------------------------------------------------------------| 
A|-7-------------7-----7------8-7-----8-7-----8-7------5-5-5----|
E|----7-7--7-5-7---5-7---5-7------7-8-----8-7-----10-8----------|

  Prepare and take aim...
G|--------------------------------------------------------------|
D|--------------------------------------10---10---10------7---7-|
A|-2-2-2-2-2-2-2-2-3-3-3-3-3-3-3-3-8--8----8----8----4--4---4---|
E|--------------------------------------------------------------|


G|-------------------|
D|-------------------|
A|-4--3--3-3-3-3-3-3-|
E|-------------------|



G|---------------------5------5------------------------------------|
D|------2-4---2-4----------5---------10---10-----------------------|
A|-2--2-----2-----3--3---3---3---8-8----8----8-8-8-8-8-8-8-8-8-8-8-|
E|-----------------------------------------------------------------|

G|--------------------------------------------------------------|
D|--------------------------------------------------------5-7---|
A|-0-0-0--3-3-3--5-5-5--4-4-4--0-0-0--3-3-3--5-5-5--4-4-7-------|
E|--------------------------------------------------------------|


G|--------------------------------------------------------------|
D|------------------------------------------------------5-7-----|
A|-0-0-0--3-3-3--5-5-5--4-4-4--0-0-0--3-3-3--5-5-5--4-4---------|
E|--------------------------------------------------------------|

G|---------------------------------------5-2--------------------|
D|-------------------------------3-3-3-------3-2-2-2-0----------|
A|-0-0-0--3-3-3--5-5-5--4-4-4--4-------3---------------3/5-5-5--|
E|--------------------------------------------------------------|

G|-------------------------------------------------------6------|
D|----------------------------7------------------------7---7----|
A|-0-0-0--3-3-3--5-5-5--4-4-7---0-0-0--3-3-3--5-5-5--4----------|
E|--------------------------------------------------------------|


G|-----------------------------------------8h10---8h10----7-7/--|
D|-------------------------------3-3-----3----------------------|
A|-0-0-0--3-3-3--5-5-5--4-4-4--4-----3-3--------8------5--------|
E|--------------------------------------------------------------|


G|--------------------------------------------------------------|
D|--------------------------------------------------------7-----|
A|-0-0-0--3-3-3--5-5-5--4-4-4--0-0-0--3-3-3--5-5-5--4---7-------|
E|----------------------------------------------------5---------|

G|------------------------------------5-----5-7-7-10-12-14-14--14-14|
D|----------------------------7---3-3---3-5-------------------------|
A|-0-0-0--3-3-3--5-5-5--4-4-7---7-----------------------------------|
E|------------------------------------------------------------------|


Bandoliers...
G|--------------------------------------------------------------|
D|-----------------------------------------------------6-7-6----| 
A|-7-------------7-----7------8-7-----8-7-----8-7------------8--|
E|----7-7--7-5-7---5-7---5-7------7-8-----8-7-----10-8----------|

G|------------------------------------------------------------------|
D|------------------------------------------------------------------| 
A|-------7-------7-------7-------8-------8--------8---------------8-|
E|-4-5-7---4-5-7---4-5-7---4-5-7---4-5-8----4-5-8---4-5-8-5-4-5-8---|



G|-------------------------------------------------------------------|
D|-------------------------------------------------------------------|
A|-------7---------------7-----7----------8-------8----------------5-| 
E|-4-5-7---4-5-7-5-4-5-7---4-5---5-4-5-8----4-5-8---4-5-8-5--4-5-8---|

G|-------------------------------------------------------------------|
D|-------------------------------------------------------------------| 
A|-------7---------------7-----7----------8-------8----------------5-|
E|-4-5-7---4-5-7-5-4-5-7---4-5---5-4-5-8----4-5-8---4-5-8-5--4-5-8---|

Prepare and take aim...
G|----------------------------------------------------------|
D|----------------2---2-3-2------10---10---10------7---7----|
A|-2--2-2-2-2-3-3---3-------8--8----8----8----4--4---4---4--|
E|----------------------------------------------------------|


G|------------------|
D|------------------|
A|---3--3-3-3-3-3-3-|
E|------------------|

G|----------------------------------------------------------|
D|----------------2---2-3-2------10---10---10------7---7----|
A|-2--2-2-2-2-3-3---3-------8--8----8----8----4--4---4---4--|
E|----------------------------------------------------------|


G|------------------|
D|------------------|
A|---3--3-3-3-3-3-3-|
E|------------------|


G|---------------------5------5------------------------------------|
D|------2-4---2-4----------5---------10---10-----------------------|
A|-2--2-----2-----3--3---3---3---8-8----8----8-8-8-8-8-8-8-8-8-8-8-|
E|-----------------------------------------------------------------|

G|---------------------5---5-2-------------------------------------|
D|------2-4---2-4--------------5-----10---10-----------------------|
A|-2--2-----2-----3--3---3-------8-8----8----8-8-8-8-8-8-8-8-8-8-8-|
E|-----------------------------------------------------------------|

G|------------------------------------------------|
D|------------------------------------------------|
A|-7--7--7--7--7--7--7--7--8--8--8--8--8--8--8--8-| 
E|------------------------------------------------|



G|------------------------------------------------|
D|------------------------------------------------|
A|-7--7--7--7--7--7--7--7--8888888--8--8--8--8--8-| 
E|------------------------------------------------|


G|--------------------------------------------------------|
D|--------------------------------------------------------|
A|-7777777-7--7-7777777-7--7-8888888-8888888-8888888-8--8-| x2
E|--------------------------------------------------------|


G|-----------------------------------------------------|
D|-----------------------------------------------------|
A|-7777777-7----7777777-7----8888888-8----8888888-8----| x2
E|-----------------------------------------------------|



G|--------------------------------------------------------|
D|--------------------------------------------------------|
A|-7777777-7----7777777-7----8888888-8888888-8888888-8----| 
E|--------------------------------------------------------|

G|-----------------------------------------------------------|
D|-----------------------------------------------------------|
A|-7777777-7777777-7777777-7----8888888-8888888-8888888-8----| 
E|-----------------------------------------------------------|

G|--------------------------------------------------------|
D|--------------------------------------------------------|
A|-7777777-7----7777777-7----8888888-8888888-8888888-8----| 
E|--------------------------------------------------------|


G|------------------------------------------|
D|------------------------------------------|
A|-0-0--3-3--5-5--4-4--0-0--3-3--5-5--4-4---|
E|------------------------------------------|

G|------------------10-------10---------|
D|---------------10------10-------------|
A|-8--8-888-8-8--------8---8-----8--8-8-|
E|--------------------------------------|

G|---------------------9-------9-----------10------10------------10-|
D|-------------------9---9---9----------10------10------------10----|
A|-7-7-7--7-7-7--7-7-------7-----8--8-8-------8-------7-8-7-8-------|
E|------------------------------------------------------------------|


G|--------------------------------------------------7-7-------7-|
D|------------------------------------------------7--7-7----7---|
A|-7-7-7--7-7-7--7-7-7--7-7-7-7-8--8-8-8-8-8-8-5---------5------|
E|--------------------------------------------------------------|

G|----------------------------------------10------------------------|
D|-------------------------------------10------10-----------6-7-6---|
A|-7-7-7--7-7-7--7-7-7--7-7-7-7-8--8-8-------8-----7--7-8-7-------8-|
E|------------------------------------------------------------------|



G|--------------------------------------------------7-7---------|
D|------------------------------------------------7--7-7--------|
A|-7-7-7--7-7-7--7-7-7--7-7-7-7-8--8-8-8-8-8-8-5---------5-5-5--|
E|--------------------------------------------------------------|





Prepare and take aim...
G|--------------------------------------------------------------------|
D|-------------------------------------10---------7-------------------|
A|-2--2--2-2-2--3--3--3-3-3--8--8--8-8----4--4--4---4-3333333-3333333-|
E|--------------------------------------------------------------------|

G|-----------------------------------------------------------------
D|------4---4---------5---5---------10---10--------7-----7-----7---
A|-2--2---2---2--3--3---3---3--8--8----8----8--4-7---4-7---7-4-----
E|-----------------------------------------------------------------

G|-----------------|
D|-----------------|
A|-3333333-3333333-|
E|-----------------|

G|---------------------5---5-2-------------------------------------|
D|------2-4---2-4--------------5-----------------------------------|
A|-2--2-----2-----3--3---3-------8888888-8888888-8888888-8888888---|
E|-----------------------------------------------------------------|

Outro

G|--------------------------------------------------------------------|
D|--------------------------------------------------------------------|
A|-2--2--2-2-2--3--3--3-3-3--8888888-8888888-8888888-8888888----------|
E|--------------------------------------------------------------------|


comments
We did not receive enough feedback on this tab! Please rate:
print report bad tab
1 2 3 4 5
I want to post or [tab]
guest
You may want to rate the tab now too:
select rating
Please do not post tabs as comments. Select "correction" instead!