Oops, an error
Loading. Please wait.

Caligulove Tab

ver5
ver5

Whole song

More versions @911Tabs.com
1,323 views 3 this week
2 commentsread comments
1 2 3 4 5
accurate
x 3
Autoscroll
+/-
esc
set tempo
stop
Contributor
Difficulty
Tuning
intermediate
A E A D F# B
WARNING: You are trying to view
                                    content from Ultimate-Guitar.com
                                    in an unauthorized application,
                                    which is prohibited.

                                    Please use an official Ultimate
                                    Guitar Tabs application for iPhone,
                                    iPad or Android to access legitimate
                                    chords, guitar, bass, and drum tabs
                                    from Ultimate-Guitar.com database.

                                    Type "ultimate guitar tabs" in Apple
                                    App Store's or Android Market's
                                    search to find the application.
Right, Caligulove.

intro
Guitar One
e-----------------------------------|-----------------------------------|
B-----------------------------------|-----------------------------------|
G------14---------------------------|-----------------------------------|
D-----------------------------------|-----------------------------------|
A-----------------------------------|--------15-10-12-12-12-12\---------|
A-----------------------------------|--------15-10-12-12-12-12\---------|

Guitar Two
e-----------------------------------|-----------------------------------|
B-----------------------------------|-----------------------------------|
G-----------------------------------|-----------------------------------|
D-----------------------------------|-----------------------------------|
A-------5-7-8-10--10-8-7\-----------|-----------------------------------|
A-------5-7-8-10--10-8-7\-----------|-----------------------------------|

Play this four times ^^^^^

Verse One
Guitar One
e-----------------------------------|-----------------------------------|
B-----------------------------------|-----------------------------------|
G-----------------------------------|-----------------------------------|
D-----------------------------------|-----------------------------------|
A----3--5--5--8--8--8---------------|----3--5--5--8--8--8---------------|
A----3--5--5--8--8--8---------------|----3--5--5--8--8--8---------------|

Guitar Two
e-----------------------------------|-----------------------------------|
B-----------------------------------|-----------------------------------|
G-----------------------------------|-----------------------------------|
D-----------------------------------|-----------------------------------|
A----------------------------10-----|---------------------------10------|
A----------------------------10-----|---------------------------10------|

Guitar One
e-----------------------------------|
B-----------------------------------|
G-----------------------------------|
D-----------------------------------|
A----3--5--5--8--8--8---------------|
A----3--5--5--8--8--8---------------|

Guitar Two
e-----------------------------------|
B-----------------------------------|
G-----------------------------------|
D-----------------------------------|
A----------------------------10-----|
A----------------------------10-----|

Verse break
guitars One and Two
e-----------------------------------|-----------------------------------|
B-----------------------------------|-----------------------------------|
G-----------------------------------|-----------------------------------|
D-----------------------------------|-----------------------------------|
A--6p5-6p5-6p5-6p5-6p5-6p5-6p5-6p5--|--6p5-6p5-6p5-6p5-6p5-6p5-6p5-6p5--|
A--6p5-6p5-6p5-6p5-6p5-6p5-6p5-6p5--|--6p5-6p5-6p5-6p5-6p5-6p5-6p5-6p5--|

Verse One cont.
Guitar One
e-----------------------------------|
B-----------------------------------|
G-----------------------------------|
D-----------------------------------|
A----3--5--5--8--8--8---------------|
A----3--5--5--8--8--8---------------|

Guitar Two
e-----------------------------------|
B-----------------------------------|
G-----------------------------------|
D-----------------------------------|
A----------------------------10-----|
A----------------------------10-----|

Played through 7 times
then..
Verse break two
guitars One and Two
e-----------------------------------|-----------------------------------|
B-----------------------------------|-----------------------------------|
G-----------------------------------|-----------------------------------|
D-----------------------------------|-----------------------------------|
A--6p5-6p5-6p5-6p5-6p5-6p5-6p5-6p5--|--6p5-6p5-6p5-6p5-6p5-6p5-6p5-6p5--|
A--6p5-6p5-6p5-6p5-6p5-6p5-6p5-6p5--|--6p5-6p5-6p5-6p5-6p5-6p5-6p5-6p5--|

Pre-Chorus
Guitar One
e-----------------------------------|-----------------------------------|
B-----------------------------------|-----------------------------------|
G-----------------------------------|-----------------------------------|
D-----------------------------------|-----------------------------------|
A------5---5---5--0--3---5----------|-----5------5---3----5-------------|
A------5---5---5--0--3---5----------|-----5------5---3----5----3--------|

Guitar Two
e-----------------------------------|-----------------------------------|
B-----------------------------------|-----------------------------------|
G-----------------------------------|-----------------------------------|
D-----------------------------------|-----------------------------------|
A-----------------------------------|-----5------5---3----5-------------|
A-----------------------------------|-----5------5---3----5----0--------|

Guitar One
e-----------------------------------|-----------------------------------|
B-----------------------------------|-----------------------------------|
G-----------------------------------|-----------------------------------|
D-----------------------------------|-----------------------------------|
A------6---6-----6---3---0----6-----|------6-----6-------8-----6\-------|
A------6---6-----6---3---0----6-----|------6-----6-------8-----6\-------|

Guitar Two
e-----------------------------------|-----------------------------------|
B-----------------------------------|-----------------------------------|
G-----------------------------------|-----------------------------------|
D-----------------------------------|-------8----8------10-----8--------|
A------13/6-------------------------|-------6----6-------8-----6--------|
A------13/6-------------------------|-------6----6-------8-----6--0-----|

Guitar One
e-----------------------------------|-----------------------------------|
B-----------------------------------|-----------------------------------|
G-----------------------------------|-----------------------------------|
D-----------------------------------|-----------------------------------|
A------5---5---5--0--3---5----------|-----5------5---3----5-------------|
A------5---5---5--0--3---5----------|-----5------5---3----5----3--------|

Guitar Two
e-----------------------------------|-----------------------------------|
B-----------------------------------|-----------------------------------|
G-----------------------------------|-----------------------------------|
D-----------------------------------|-----------------------------------|
A-----------------------------------|-----------------------------------|
A------17---17---18---17----15------|----12------12---------------------|

Guitar One
e-----------------------------------|-----------------------------------|
B-----------------------------------|-----------------------------------|
G-----------------------------------|-----------------------------------|
D-----------------------------------|-----------------------------------|
A-------6---6---6--3--0----6--------|----6------6---8------6\-----------|
A-------6---6---6--3--0----6--------|----6------6---8------6\-----------|

Guitar Two
e-----------------------------------|-----------------------------------|
B-----------------------------------|-----------------------------------|
G-----------------------------------|-----------------------------------|
D-----------------------------------|-----------------------------------|
A-----------------------------------|----13----6------------------------|
A-------13---15---17----15---13-----|----13\\\\6--------10--12--10------|

Guitar One
e-----------------------------------|-----------------------------------|
B-----------------------------------|-----------------------------------|
G-----------------------------------|-----------------------------------|
D-----------------------------------|-----------------------------------|
A------5---5---5-\\\\----5----------|-----5------5---3----5-------------|
A------5---5---5-\\\\----5----------|-----5------5---3----5----3--------|

Guitar Two
e-----------------------------------|-----------------------------------|
B-----------------------------------|-----------------------------------|
G-----------------------------------|-----------------------------------|
D-----------------------------------|-----------------------------------|
A-----12--12--12--------------------|-----------------------------------|
A-----12--12--12\\\\----------------|-----5------5---3----5----0--------|

Guitar One
e-----------------------------------|-----------------------------------|
B-----------------------------------|-----------------------------------|
G-----------------------------------|-----------------------------------|
D-----------------------------------|-----------------------------------|
A------6---6-----6---3---0----6-----|------6-----6-------8-----6\-------|
A------6---6-----6---3---0----6-----|------6-----6-------8-----6\-------|

Guitar Two
e-----------------------------------|-----------------------------------|
B-----------------------------------|-----------------------------------|
G-----------------------------------|-----------------------------------|
D----------8-----8\\------------8---|-------8---------------8-----------|
A------6---6-----6\\------------6---|-------6---------------6-----------|
A------6---6-----6\\------------6---|-------6---------------6-----------|

Chorus One.. (finally..)

Both guitars
e-----------------------------------|-----------------------------------|
B-----------------------------------|-----------------------------------|
G-----------------------------------|-----------------------------------|
D-----------------------------------|-----------------------------------|
A---10---10----10---12---8--5-------|------5-----------5---6------5-----|
A---10---10----10---12---8--5-------|------5-----------5---6------5-----|

e-----------------------------------|-----------------------------------|
B-----------------------------------|-----------------------------------|
G-----------------------------------|-----------------------------------|
D-----------------------------------|-----------------------------------|
A---10---10----10---12---8--5-------|------5-----------5---3------5-----|
A---10---10----10---12---8--5-------|------5-----------5---3------5-----|

e-----------------------------------|-----------------------------------|
B-----------------------------------|-----------------------------------|
G-----------------------------------|-----------------------------------|
D-----------------------------------|------7-----------7--8-------7-----|
A---10\\5--10\\5--10\\------5-------|------5-----------5--6-------5-----|
A---10\\5--10\\5--10\\------5-------|------5-----------5--6-------5-----|

e-----------------------------------|-----------------------------------|
B-----------------------------------|-----------------------------------|
G-----------------------------------|-----------------------------------|
D-----------------------------------|------7-----------7--8-------7-----|
A---8----8----8---8----6----5-------|------5-----------5--6-------5-----|
A---8----8----8---8----6----5-------|------5-----------5--6-------5-----|

e-----------------------------------|------------------------------------|
B-----------------------------------|------------------------------------|
G-----------------------------------|------------------------------------|
D-----------------------------------|------------------------------------|
A---8---8------8---8----6---5-------|---5-5--6p5-6p5-6p5-6p5-6p5-6p5-6p5-|
A---8---8------8---8----6---5-------|---5-5--6p5-6p5-6p5-6p5-6p5-6p5-6p5-|

e-----------------------------------|
B-----------------------------------|
G-----------------------------------|
D-----------------------------------|
A-6p5-6p5-6p5-6p5-6p5-6p5-6p5-6p5---|
A-6p5-6p5-6p5-6p5-6p5-6p5-6p5-6p5---|

Verse Two
Guitar One
e-----------------------------------|
B-----------------------------------|
G-----------------------------------|
D-----------------------------------|
A----3--5--5--8--8--8---------------|
A----3--5--5--8--8--8---------------|

Guitar Two
e-----------------------------------|
B-----------------------------------|
G-----------------------------------|
D-----------------------------------|
A----------------------------10-----|
A----------------------------10-----|

played 15 times ^^^
then this..
e-----------------------------------|-----------------------------------|
B-----------------------------------|-----------------------------------|
G-----------------------------------|-----------------------------------|
D-----------------------------------|-----------------------------------|
A--6p5-6p5-6p5-6p5-6p5-6p5-6p5-6p5--|--6p5-6p5-6p5-6p5-6p5-6p5-6p5-6p5--|
A--6p5-6p5-6p5-6p5-6p5-6p5-6p5-6p5--|--6p5-6p5-6p5-6p5-6p5-6p5-6p5-6p5--|

now play through the whole pre-chorus and chorus again, but play the Chorus twice through.
then this..

Post Chorus
Guitar One
e-----------------------------------|-----------------------------------|
B-----------------------------------|-----------------------------------|
G----------------5///7--------------|--8--------------------------------|
D-----------------------------------|-----------------------------------|
A-----------------------------------|-----------------------------------|
A--5--------------------------------|-----------------------------------|

Guitar Two
e-----------------------------------|-----------------------------------|
B-----------------------------------|-----------------------------------|
G-----------------------------------|-----------------------------------|
D-----------------------------------|-----------------------------------|
A--6p5-6p5-6p5-6p5-6p5-6p5-6p5-6p5--|--6p5-6p5-6p5-6p5-6p5-6p5-6p5-6p5--|
A--6p5-6p5-6p5-6p5-6p5-6p5-6p5-6p5--|--6p5-6p5-6p5-6p5-6p5-6p5-6p5-6p5--|

Guitar One
e-----------------------------------|-----------------------------------|
B-----------------------------------|-----------------------------------|
G----------------5///7--------------|-----------------------------------|
D-----------------------------------|---7-------------------------------|
A-----------------------------------|-----------------------------------|
A--5--------------------------------|-----------------------------------|

Guitar Two
e-----------------------------------|-----------------------------------|
B-----------------------------------|-----------------------------------|
G-----------------------------------|-----------------------------------|
D-----------------------------------|-----------------------------------|
A--6p5-6p5-6p5-6p5-6p5-6p5-6p5-6p5--|--6p5-6p5-6p5-6p5-6p5-6p5-6p5-6p5--|
A--6p5-6p5-6p5-6p5-6p5-6p5-6p5-6p5--|--6p5-6p5-6p5-6p5-6p5-6p5-6p5-6p5--|

Guitar One
e-----------------------------------|-----------------------------------|
B--9p8-9p8-9p8----9p8-9p8-9p8-9p8---|--9p8-9p8-9p8----9p8-9p8-9p8-9p8-8-|
G--------------7--------------------|--------------7--------------------|
D-----------------------------------|-----------------------------------|
A-----------------------------------|-----------------------------------|
E-----------------------------------|-----------------------------------|

Guitar Two
e-----------------------------------|-----------------------------------|
B-----------------------------------|-----------------------------------|
G-----------------------------------|-----------------------------------|
D-----------------------------------|-----------------------------------|
A--11p10-11p10-11p10-11p10-11p10----|--11p10-11p10-11p10-11p10-11p10----|
A--11p10-11p10-11p10-11p10-11p10----|--11p10-11p10-11p10-11p10-11p10----|

Guitar One
e--------7h10p7---------------------|-10p7--------------------10p7------|
B--9p8h9--------9p8-9p8---9p8-9p8---|-------9p8-8-8-8-8-8-9p8------9p8--|
G-----------------------7-----------|-----------------------------------|
D-----------------------------------|-----------------------------------|
A-----------------------------------|-----------------------------------|
A-----------------------------------|-----------------------------------|

Guitar Two
e-----------------------------------|-----------------------------------|
B-----------------------------------|-----------------------------------|
G-----------------------------------|-----------------------------------|
D-----------------------------------|-----------------------------------|
A--11p10-11p10-11p10-11p10-11p10----|--11p10-11p10-11p10-11p10-11p10----|
A--11p10-11p10-11p10-11p10-11p10----|--11p10-11p10-11p10-11p10-11p10----|

Guitar One
e-----------------------------------|-----------------------------------|
B-----------------------------------|-----------------------------------|
G----------------5///7--------------|--8--------------------------------|
D-----------------------------------|-----------------------------------|
A-----------------------------------|-----------------------------------|
A--5--------------------------------|-----------------------------------|

Guitar Two
e-----------------------------------|-----------------------------------|
B-----------------------------------|-----------------------------------|
G-----------------------------------|-----------------------------------|
D-----------------------------------|-----------------------------------|
A--6p5-6p5-6p5-6p5-6p5-6p5-6p5-6p5--|--6p5-6p5-6p5-6p5-6p5-6p5-6p5-6p5--|
A--6p5-6p5-6p5-6p5-6p5-6p5-6p5-6p5--|--6p5-6p5-6p5-6p5-6p5-6p5-6p5-6p5--|

Guitar One
e-----------------------------------|-----------------------------------|
B--------------------13b------------|---15r-----------13----------------|
G-----------------------------------|-----------------------------------|
D-----------------------------------|-----------------------------7-----|
A--8--------------------------------|-----------------------------------|
A-----------------------------------|-----------------------------------|

Guitar Two
e-----------------------------------|-----------------------------------|
B-----------------------------------|-----------------------------------|
G-----------------------------------|-----------------------------------|
D-----------------------------------|-----------------------------------|
A--6p5-6p5-6p5-6p5-6p5-6p5-6p5-6p5--|--6p5-6p5-6p5-6p5-6p5-6p5-6p5-6p5--|
A--6p5-6p5-6p5-6p5-6p5-6p5-6p5-6p5--|--6p5-6p5-6p5-6p5-6p5-6p5-6p5-6p5--|

Guitar One
e-----------------------------------|------------------------------------|
B-------15b--------17---r15---------|---15-------------------------------|
G------------------------------13---|------13------------------------13\-|
D-----------------------------------|------------------------------------|
A--10-------------------------------|------------------------------------|
A-----------------------------------|------------------------------------|

Guitar Two
e-----------------------------------|-----------------------------------|
B-----------------------------------|-----------------------------------|
G-----------------------------------|-----------------------------------|
D-----------------------------------|-----------------------------------|
A--11p10-11p10-11p10-11p10-11p10----|--11p10-11p10-11p10-11p10-11p10----|
A--11p10-11p10-11p10-11p10-11p10----|--11p10-11p10-11p10-11p10-11p10----|

and finally..
Outro
Guitar One
e-----------------------------------|-----------------------------------|
B-----------------------------------|-----------------------------------|
G------14---------------------------|-----------------------------------|
D-----------------------------------|-----------------------------------|
A-----------------------------------|--------15-10-12-12-12-12\---------|
A-----------------------------------|--------15-10-12-12-12-12\---------|

Guitar Two
e-----------------------------------|-----------------------------------|
B-----------------------------------|-----------------------------------|
G-----------------------------------|-----------------------------------|
D-----------------------------------|-----------------------------------|
A-------5-7-8-10--10-8-7\-----------|-----------------------------------|
A-------5-7-8-10--10-8-7\-----------|-----------------------------------|

Played 3 times ^^^^

Guitar One
e-----------------------------------|
B-----------------------------------|
G-------14--------------------------|
D-----------------------------------|
A-----------------------------------|
A-----------------------------------|

Guitar Two
e-----------------------------------|-----------------------------------|
B-----------------------------------|-----------------------------------|
G-----------------------------------|-----------------------------------|
D-----------------------------------|-----------------------------------|
A-------5-7-8-10--10-8-7------------|-----7////-------------------------|
A-------5-7-8-10--10-8-7------------|-----7////-------------------------|

That's all folks!
comments
We did not receive enough feedback on this tab! Please rate:
print report bad tab
1 2 3 4 5
2 comments total.
0 reply
Cliff Geezer wrote on June 2 2010, 07:16 pm

I like this tab but i only gave it four stars because it was just a little weird. like did you really have to split some riffs into two guitars?
that being said, it sounds pretty accurate still and appreciate that you tabbed the leads (which i couldnt find)
pretty good, accurate tab overall

+1 reply
Barbaloot wrote on June 3 2010, 05:09 pm

If you listen with headphones on, there are clearly two guitars playing, also, its straight from the tab book.

I want to post or [tab]
guest
You may want to rate the tab now too:
select rating
Please do not post tabs as comments. Select "correction" instead!