Oops, an error
Loading. Please wait.

Dead End Friends Tab

ver3
ver3

Whole song

Interactive

More versions @911Tabs.com
2,608 views 1 this week
no commentswrite comment
1 2 3 4 5
worth learning
x 1
Autoscroll
+/-
esc
set tempo
stop
Contributor
Hey! There's an official Ultimate Guitar app which is ideal
for learning songs when you're away from computer. Get the app
WARNING: You are trying to view
                                    content from Ultimate-Guitar.com
                                    in an unauthorized application,
                                    which is prohibited.

                                    Please use an official Ultimate
                                    Guitar Tabs application for iPhone,
                                    iPad or Android to access legitimate
                                    chords, guitar, bass, and drum tabs
                                    from Ultimate-Guitar.com database.

                                    Type "ultimate guitar tabs" in Apple
                                    App Store's or Android Market's
                                    search to find the application.
-----------------------------------------------------------------------------
                  Dead End Friends - Them Crooked Vultures
-----------------------------------------------------------------------------
Tabbed by: Brian
Email: 32ledzeppelin32@gmail.com

Tuning: Standard

e|--------------------------------------------------------------------------|
B|--------------------------------------------------------------------------|
G|---18-18-18-16-17-17-17---------------------------------------------------|
D|----x--x--x--x--x--x--x---------------------------------------------------|
A|---16-16-16-14-15-15-15---------------------------------------------------|
E|--------------------------------------------------------------------------|

e|--------------------------------------------------------------------------|
B|--------------------------------------------------------------------------|
G|--------------------------------------------------------------------------|
D|--------------------------------------------------------------------------|
A|---11-11-11-x-11-11-11-11-------------------------------------------------|
E|---9--9--9--x-9--9--9--9--------------------------------------------------|

e|--------------------------------------------------------------------------|
B|--------------------------------------------------------------------------|
G|--18-18-18-16-17-17-17----------------------------------------------------|
D|---x--x--x--x--x--x--x----------------------------------------------------|
A|--16-16-16-14-15-15-15----------------------------------------------------|
E|--------------------------------------------------------------------------|

e|--------------------------------------------------------------------------|
B|--------------------------------------------------------------------------|
G|--------------------------------------------------------------------------|
D|--------------------------------------------------------------------------|
A|---11-11-11-x-11-11-11-11-------------------------------------------------|
E|----9--9--9-x--9--9--9--9-------------------------------------------------|

e|--------------------------------------------------------------------------|
B|--------------------------------------------------------------------------|
G|----18-18-18-16-17-17-17--------------------------------------------------|
D|-----x--x--x--x--x--x--x--------------------------------------------------|
A|----16-16-16-14-15-15-15--------------------------------------------------|
E|--------------------------------------------------------------------------|

e|--------------------------------------------------------------------------|
B|--------------------------------------------------------------------------|
G|--------------------------------------------------------------------------|
D|--------------------------------------------------------------------------|
A|---11-11-11-x-11-11-11-11-------------------------------------------------|
E|----9--9--9-x--9--9--9--9-------------------------------------------------|

e|--------------------------------------------------------------------------|
B|--------------------------------------------------------------------------|
G|---18-18-18-16-17-17-17---------------------------------------------------|
D|----x--x--x--x--x--x--x---------------------------------------------------|
A|---16-16-16-14-15-15-15---------------------------------------------------|
E|--------------------------------------------------------------------------|

e|--------------------------------------------------------------------------|
B|--------------------------------------------------------------------------|
G|--------------------------------------------------------------------------|
D|--------------------------------------------------------------------------|
A|--11-11-11-11-11-11-11-11-------------------------------------------------|
E|---9--9--9--9--9--9--9--9-------------------------------------------------|

Here, the first guitar plays the riff alone, and then again with the second guitar.

 Guitar 1
e|-----------------------------------------------------------------------|
B|-----------------------------------------------------------------------|
G|-----------------------------------------------------------------------|
D|--11-11-9-11-11-9-11-11-9-11-12-12-11----------------------------------| x2
A|---9--9-9--9--9-9--9--9-9--9--9--9--9----------------------------------|
E|-----------------------------------------------------------------------|

 Guitar 1
e|-----------------------------------------------------------------------|
B|-----------------------------------------------------------------------|
G|-----------------------------------------------------------------------|
D|--11-11-9-11-11-9-11-11-9-11-12-12-11----------------------------------| x2
A|---9--9-9--9--9-9--9--9-9--9--9--9--9----------------------------------|
E|-----------------------------------------------------------------------|

Guitar 2
e|-----------------------------------------------------------------------|
B|-----------------------------------------------------------------------|
G|------------------------------6h7--------------------------------------|
D|--------------------------7h9------------------------------------------| x2
A|--11-11-9-11-11-9-11-11-9----------------------------------------------|
E|---9--9-7--9--9-7--9--9-7----------------------------------------------|

Guitar 1
e|-----------------------------------------------------------------------|
B|-----------------------------------------------------------------------|
G|-----------------------------------------------------------------------|
D|--11-11-9-11-11-9-11-11-9-11-12-12-11----------------------------------| x2
A|---9--9-9--9--9-9--9--9-9--9--9--9--9----------------------------------|
E|-----------------------------------------------------------------------|

I drive all alone, at night, I drive all alone.

 Guitar 1
e|-----------------------------------------------------------------------|
B|-----------------------------------------------------------------------|
G|-----------------------------------------------------------------------|
D|--11-11-9-11-11-9-11-11-9-11-12-12-11----------------------------------| x2
A|---9--9-9--9--9-9--9--9-9--9--9--9--9----------------------------------|
E|-----------------------------------------------------------------------|

Guitar 2
e|-----------------------------------------------------------------------|
B|-----------------------------------------------------------------------|
G|------------------------------6h7--------------------------------------|
D|--------------------------7h9------------------------------------------| x2
A|--11-11-9-11-11-9-11-11-9----------------------------------------------|
E|---9--9-7--9--9-7--9--9-7----------------------------------------------|

Don't know what I'm headed for.

Guitar 1
e|-----------------------------------------------------------------------|
B|-----------------------------------------------------------------------|
G|-----------------------------------------------------------------------|
D|--11-11-9-11-11-9-11-11-9-11-12-12-11----------------------------------| x2
A|---9--9-9--9--9-9--9--9-9--9--9--9--9----------------------------------|
E|-----------------------------------------------------------------------|

I follow the road, blind. Until the road is dead end.

 Guitar 1
e|-----------------------------------------------------------------------|
B|-----------------------------------------------------------------------|
G|-----------------------------------------------------------------------|
D|--11-11-9-11-11-9-11-11-9-11-12-12-11----------------------------------| x2
A|---9--9-9--9--9-9--9--9-9--9--9--9--9----------------------------------|
E|-----------------------------------------------------------------------|

Guitar 2
e|-----------------------------------------------------------------------|
B|-----------------------------------------------------------------------|
G|------------------------------6h7--------------------------------------|
D|--------------------------7h9------------------------------------------| x2
A|--11-11-9-11-11-9-11-11-9----------------------------------------------|
E|---9--9-7--9--9-7--9--9-7----------------------------------------------|

Night's in my veins, it's calling me. Racing along these arteries

Guitar 1 (Hold these notes)
e|--------------------------------------------------------------------------|
B|--------------------------------------------------------------------------|
G|--------------------------------------------------------------------------|
D|---9----------------------------------------------------------------------|
A|---7---12--11-------------------------------------------------------------|
E|-------10---9-------------------------------------------------------------|

and law, is just a myth

Guitar 2
e|--------------------------------------------------------------------------|
B|--------------------------------------------------------------------------|
G|--------------------------------------------------------------------------|
D|--------------------------------------------------------------------------|
A|--11-11-9-11-11-9-11-11-9-11-11-9-----------------------------------------|
E|---9--9-7--9--9-7--9--9-7--9--9-7-----------------------------------------|

Guitar 1
e|--------------------------------------------------------------------------|
B|--------------------------------------------------------------------------|
G|--------------------------------------------------------------------------|
D|---9----------------------------------------------------------------------|
A|---7---12--11-------------------------------------------------------------|
E|-------10---9-------------------------------------------------------------|

to herd us over the cliff.

Guitar 2
e|--------------------------------------------------------------------------|
B|---9----------------------------------------------------------------------|
G|-----11-9-----------------------------------------------------------------|
D|----------11-11-9--9\0----------------------------------------------------|
A|--------------------------------------------------------------------------|
E|--------------------------------------------------------------------------|


Guitar 1
e|--------------------------------------------------------------------------|
B|--------------------------------------------------------------------------|
G|--------------------------------------------------------------------------|
D|--------9-11--------------------------------------------------------------|
A|---9-11------9-11-9~------------------------------------------------------|
E|--------------------------------------------------------------------------|

I follow the road at night, just hoping to find

Guitar 1
e|-----------------------------------------------------------------------|
B|-----------------------------------------------------------------------|
G|-----------------------------------------------------------------------|
D|--11-11-9-11-11-9-11-11-9-11-12-12-11----------------------------------| x2
A|---9--9-9--9--9-9--9--9-9--9--9--9--9----------------------------------|
E|-----------------------------------------------------------------------|

Guitar 2
e|-----------------------------------------------------------------------|
B|-----------------------------------------------------------------------|
G|------------------------------6h7--------------------------------------|
D|--------------------------7h9------------------------------------------| x2
A|--11-11-9-11-11-9-11-11-9----------------------------------------------|
E|---9--9-7--9--9-7--9--9-7----------------------------------------------|

Which puzzle piece fell out of me.

Guitar 1
e|--------------------------------------------------------------------------|
B|--------------------------------------------------------------------------|
G|--------------------------------------------------------------------------|
D|---11-11h9----------------------------------------------------------------|
A|---11-11h9-9-9h11-9~------------------------------------------------------|
E|--------------------------------------------------------------------------|

I know who you are, open the door and climb in.

 Guitar 1
e|-----------------------------------------------------------------------|
B|-----------------------------------------------------------------------|
G|-----------------------------------------------------------------------|
D|--11-11-9-11-11-9-11-11-9-11-12-12-11----------------------------------| x2
A|---9--9-9--9--9-9--9--9-9--9--9--9--9----------------------------------|
E|-----------------------------------------------------------------------|

Guitar 2
e|-----------------------------------------------------------------------|
B|-----------------------------------------------------------------------|
G|------------------------------6h7--------------------------------------|
D|--------------------------7h9------------------------------------------| x2
A|--11-11-9-11-11-9-11-11-9----------------------------------------------|
E|---9--9-7--9--9-7--9--9-7----------------------------------------------|

Hold me real close then do it again, I ache for the touch of my dead end friends


Guitar 1
e|--------------------------------------------------------------------------|
B|--------------------------------------------------------------------------|
G|--------------------------------------------------------------------------|
D|---9----------------------------------------------------------------------|
A|---7---12--11-------------------------------------------------------------|
E|-------10---9-------------------------------------------------------------|

And oh, I gotta know

Guitar 1
e|--------------------------------------------------------------------------|
B|--------------------------------------------------------------------------|
G|--------------------------------------------------------------------------|
D|--------------------------------------------------------------------------|
A|--11-11-9-11-11-9-11-11-9-11-11-9-----------------------------------------|
E|---9--9-7--9--9-7--9--9-7--9--9-7-----------------------------------------|

Guitar 2
e|--------------------------------------------------------------------------|
B|---9----------------------------------------------------------------------|
G|-----11h9-----------------------------------------------------------------|
D|----------11-11p9-11\0----------------------------------------------------|
A|--------------------------------------------------------------------------|
E|--------------------------------------------------------------------------|

Guitar 1
e|--------------------------------------------------------------------------|
B|--------------------------------------------------------------------------|
G|--------------------------------------------------------------------------|
D|---9----------------------------------------------------------------------|
A|---7---12--11-------------------------------------------------------------|
E|-------10---9-------------------------------------------------------------|

Is it dead, at the end of the road?

Guitar 1:
e|--------------------------------------------------------------------------|
B|--------------------------------------------------------------------------|
G|--------------------------------------------------------------------------|
D|--------------------------------------------------------------------------|
A|--11-11-9-11-11-9-11-11-9-11-11-9-----------------------------------------|
E|---9--9-7--9--9-7--9--9-7--9--9-7-----------------------------------------|

Guitar 2
e|--------------------------------------------------------------------------|
B|---9----------------------------------------------------------------------|
G|-----11h9-----------------------------------------------------------------|
D|----------11-11p9-11-11p9-9\0-0/11~---------------------------------------|
A|--------------------------------------------------------------------------|
E|--------------------------------------------------------------------------|

Guitar 1
e|--------------------------------------------------------------------------|
B|--------------------------------------------------------------------------|
G|--------------------------------------------------------------------------|
D|---9----------------------------------------------------------------------|
A|---7---12--11-------------------------------------------------------------|
E|-------10---9-------------------------------------------------------------|

I can tell by that look in your eyes

e|--------------------------------------------------------------------------|
B|--------------------------------------------------------------------------|
G|--------------------------------------------------------------------------|
D|--------------------------------------------------------------------------|
A|--11-11-9-11-11-9-11-11-9-11-11-9-----------------------------------------|
E|---9--9-7--9--9-7--9--9-7--9--9-7-----------------------------------------|

Guitar 2 (continued from last part)
e|--------------------------------------------------------------------------|
B|--------------------------------------------------------------------------|
G|--------------------------------------------------------------------------|
D|--/11~---9-11p9-9~-------9-11-9--9-11-9--9-11-9--9-11---------------------|
A|--------------------------------------------------------------------------|
E|--------------------------------------------------------------------------|

Guitar 1
e|--------------------------------------------------------------------------|
B|--------------------------------------------------------------------------|
G|--------------------------------------------------------------------------|
D|---9----------------------------------------------------------------------|
A|---7---12--11-------------------------------------------------------------|
E|-------10---9-------------------------------------------------------------|

We're the same, my dead end friends and I.

e|--------------------------------------------------------------------------|
B|--------------------------------------------------------------------------|
G|--------------------------------------------------------------------------|
D|--------------------------------------------------------------------------|
A|--11-11-9-11-11-9-11-11-9-11-11-9-----------------------------------------|
E|---9--9-7--9--9-7--9--9-7--9--9-7-----------------------------------------|

Hold these chords as well
e|---------------------------------------------|
B|---------------------------------------------|
G|---------------------------------------------|
D|---------------------------------------------|
A|---7----9------------------------------------|
E|---5----7------------------------------------|

This is the part with all of the mini solos in between the riffs.

Solo 1
e|--------------------------------------------------------------------------|
B|--------------------------------------------------------------------------|
G|---------------------------9h11p9-----------------------------------------|
D|---11-11-9-11-11-9-11-11--------9h11p9-9~----9h11-9~----------------------|
A|--------------------------------------------------------------------------|
E|--------------------------------------------------------------------------|

Solo 2
e|--------------------------------------------------------------------------|
B|--------------------------------------------------------------------------|
G|---------------------------9~---------------------------------------------|
D|--------------------9h11-9------------------------------------------------|
A|-----------------11------------11~----------------------------------------|
E|--------------------------------------------------------------------------|

Solo 3
e|--------------------------------------------------------------------------|
B|-------------------------------------------9h12p9-------------------------|
G|-----------------------------------9h11p9---------9h11p9------------------|
D|---11-11-9-11--11-9-11-11-9-9h11p9-----------------------9h11p9-----------|
A|--------------------------------------------------------------------------|
E|-----------------------------------------------------------------11~---9~-|

Solo 4 (Pick the last ten notes very fast then hold the last one)
e|-----------------------------------------------------------------------|
B|--12b-12-9-------------------------------------------------------------|
G|-----------11-9----------------9-11-9-11-9-11-9-11-9-11~---------------|
D|----------------11-9------9-11-----------------------------------------|
A|---------------------11-9----------------------------------------------|
E|-----------------------------------------------------------------------|

 Pick these notes very fast as well (2:16)
e|-----------------------------------------------------------------------|
B|-----------------------------------------------------------------------|
G|------9-11-9-11-9-11-9-11~---11b---------------------------------------|
D|-----------------------------------------------------------------------|
A|-----------------------------------------------------------------------|
E|-----------------------------------------------------------------------|

The rest of the song is repeat, and when the intro is repeated again, the second riff is 
same except it has E5 and D5 power chords at the end(power chords on the twelfth and 
frets of the bottom E string at the end).

I haven't tabbed the last solo yet, so just improvise on the C# minor penatonic scale 
now.


************************************

| /   slide up
| \   slide down
| h   hammer-on
| p   pull-off
| ~   vibrato
| +   harmonic
| x   Mute note
| b   Bend
| pb  Pre-bend
| br  Bend release
| pbr Pre-bend release
| brb Bend release bend

************************************
comments
We did not receive enough feedback on this tab! Please rate:
print report bad tab
1 2 3 4 5
I want to post or [tab]
guest
You may want to rate the tab now too:
select rating
Please do not post tabs as comments. Select "correction" instead!