Oops, an error
Loading. Please wait.

Scumbag Blues Tab

ver2
ver2

Intro

Whole song

More versions @911Tabs.com
23,008 views 51 this week
4 commentsread comments
1 2 3 4 5
excellent!
x 10
Autoscroll
+/-
esc
set tempo
stop
Difficulty
intermediate
WARNING: You are trying to view
                                    content from Ultimate-Guitar.com
                                    in an unauthorized application,
                                    which is prohibited.

                                    Please use an official Ultimate
                                    Guitar Tabs application for iPhone,
                                    iPad or Android to access legitimate
                                    chords, guitar, bass, and drum tabs
                                    from Ultimate-Guitar.com database.

                                    Type "ultimate guitar tabs" in Apple
                                    App Store's or Android Market's
                                    search to find the application.
Scumbag Blues - Them crooked Vultures
_____________________________________
Normal Tuning: EADGBe

Riff 1.1
      Q     Q     Q     S  S  S  S     Q     Q     E   E    Q      
e||--------------------------------|------------------------------|
B||--------------------------------|------------------13b---------|
G||--------------------------------|------------------------------|
D||--------------------10----------|-----------------------10~----|
A||--12----12----12-------12-10----|------------------------------|
E||-----------------------------12-|--10----10-----x--------------|

Riff 1.2

   Q     Q     S   S   S  S  S  S  S  S     Q     Q     E   E    Q      
----------------------------------------|------------------------------|
----------------------------------------|------------------13b---------|
----------------------------------------|------------------------------|
-------------------------10-------------|-----------------------10~----|
--12----12----10h-11h-12-------12-10----|------------------------------|
-------------------------------------12-|--10----10-----x--------------|

Riff 1.3

   E   S   S   S  S   E   S   S   S  S   S  S  S  S  
----------------------------------------------------|------------------------------|
----------------------------------------------------|------------------13b---------|
----------------------------------------------------|------------------------------|
-----------------10~----------------10~-------------|-----------------------10~----|
--12--10h-11h-12---------10h-11h-12--------12-10----|------------------------------|
-------------------------------------------------12-|--10----10----10--------------|

Riff 1.4

   Q     Q     Q     S  S  S  S     Q     Q     E  E   Q         
--------------------------------|----------------------------|
--------------------------------|---------------------13b----|
--------------------------------|----------------------------|
--------------------10----------|----------------------------|
--12----12----12-------12-10----|----------------------------|
-----------------------------12-|--10----10-----x--8---------|
_____________________________________

Riff 2.1a

  Q     Q    E   S   S  S  S  S  S  
-------12-------12s--8--8--8--8----|----------------------------------------|
-------13-------13--10-10-10-10-10-|--10----10----------10----12p-10--------|
-------14-------14--11-11-11-11-11-|--11----11----9h-11----11--------11s-14-|
-----------------------------------|----------------------------------------|
-----------------------------------|----------------------------------------|
-----------------------------------|----------------------------------------|

   E   E   E   E   S  S  S  S S  S  S   S     Q     Q    E   E   Q     
----------12------15-12----12-------------|---------------------------|
------13------13--------13------13--------|--10----10-------15b-------|
--14-------------------------------14s-11-|--11----11-----------------|
------------------------------------------|---------------------------|
------------------------------------------|---------------------------|
------------------------------------------|---------------------------|

Riff 2.1b

  Q     Q    E   S   S  S  S  S  S     Q     Q    S   S  S  S  S   S  S   S  
-------12-------12s--8--8--8--8----|----------------------------------------|
-------13-------13--10-10-10-10-10-|--10----10----------10----12p-10--------|
-------14-------14--11-11-11-11-11-|--11----11----9h-11----11--------11s-14-|
-----------------------------------|----------------------------------------|
-----------------------------------|----------------------------------------|
-----------------------------------|----------------------------------------|

   Q     E.   S  S   S  S  S  S   S  S  S     Q     Q    E   E   S  S  E    
--12----12--------------------------------|-----------------12--12-12-12\--|
--13----13------10s-12-12-12-10s-12-12-10-|--10----10-------13--13-13-13---|
--14----14-------9s-11-11-11--9s-11-11--9-|--11----11----------------------|
-------------10-10s-12-12-12-10s-12-12-10-|--------------------------------|
------------------------------------------|--------------------------------|
------------------------------------------|--------------------------------|


Riff 2.2

   Q     Q     S   S  S  S  S   S  S  S    Q    Q    S   S  S  S S   S  S  S  
--12----12------------------------------|------------------------------------|
--13----13----10s-12-12-12-10s-12-12-10-|--7----7----8s-10-10-10-8s-10-10-10-|
--14----14-----9s-11-11-11--9s-11-11--9-|--7----7----7s--9--9--9-7s--9--9--9-|
--------------10s-12-12-12-10s-12-12-10-|--7----7----8s-10-10-10-8s-10-10-10-|
----------------------------------------|------------------------------------|
----------------------------------------|------------------------------------|


   Q     Q     S   S  S  S  S   S  S  S    Q    Q    S S S S S S E   
--12----12------------------------------|---------------------------|
--13----13----10s-12-12-12-10s-12-12-10-|--7----7----5-7-7-5-7-7-7--|
--14----14-----9s-11-11-11--9s-11-11--9-|--7----7----5-7-7-5-7-7-7--|
--------------10s-12-12-12-10s-12-12-10-|--7----7----5-7-7-5-7-7-7--|
----------------------------------------|---------------------------|
----------------------------------------|---------------------------|
___________________________

1st Solo:

   E   E   E   E   E   E   Q     
--------------------------------|
--------------13b---------------|
--11--12--14----------14~-------|
--------------------------------|
--------------------------------| 3x
--------------------------------|


   E   E   E  E  E   E    S  S  E   
-----------------------------------|
--------------------15b--13--------|
--11--12--14----------------14~----|
-----------------------------------|
-----------------------------------|
-----------------------------------|

   E   E   E   E   E   E   Q     
--------------------------------|
--------------13b---------------|
--11--12--14----------14~-------|
--------------------------------|
--------------------------------| 3x
--------------------------------|

   E   E   E   E   E   E   E   E      E   E    E   E    E     E     Q       
-----------------------------------|---------------------------------------|
--------------13b-----15b-----15b--|-----15b------15b--15pb--15pb--15br----|
--11--12--14-----------------------|---------------------------------------|
-----------------------------------|---------------------------------------|
-----------------------------------|---------------------------------------|
-----------------------------------|---------------------------------------|


         |---3---|              |---3---|        
   Q     S   S   S  S  S  Q     S   S   S  S  S  
------------------------------------------------|
--15----13h-15p-13-12-12-13----12h-13p-12-10-12-|
------------------------------------------------|
------------------------------------------------|
------------------------------------------------|
------------------------------------------------|


   E.   S  S  S E   E.   S  S  S  E    
--------------------------------------|
--10------10-12-----------------------|
-------11----------11---11-11-11-11b--|
--------------------------------------|
--------------------------------------|
--------------------------------------|


  E   E     E     E     Q     S   S  S  S  
------------------------------------------|
------------------------------------------|
-----11pb--11pb--11pb--11-----------------|
-----------------------------10h-12----10-|
------------------------------------------|
------------------------------------------|


   S   S  E   E   S  S      Q      Q       E   E   E   E   E.   S   E.   S   
----------------------------------------|-----------------------------------|
----------------------------------------|-----------------------------------|
-----------------------14s(17)----------|-----------------------------------|
--12s-14-12------12---------------------|-----------------------------------|
-------------15-----12------------15----|-----12--14--15--14---12h-14---10h-|
----------------------------------------|-----------------------------------|


   E    E    E.    S   S   S   S     S  E  E   
----------------------------------------------|
----------------------------------------------|
----------------------------------------------|
----------------------------------------------|
--12~--12~--12~---10h-12p-10------------9--9--|
-----------------------------(12)s-(10)-------|


   S   E  E  E  S  S   S T   T   S E  S  S   
--------------------------------------------|
--------------------------------------------|
--------------------------------------------|
-----------------------------------9--9-(9)-|
----------9--9--9--------9h-10h-12----------|
--10h-12----------10h-12--------------------|


   S   S S   S  S  S S S E  E  Q     
------------------------------------|
------------------------------------|
------------------------------------|
------------------------------------|
--12p-10-9h-10p-9------9----9--9----|
------------------12----------------|

__________________________________

"Appregio's":

   S  S  S  S  H.               S  S  S  S  H.            
--20-17----20-17------------|--19-16----19-16------------|
--------17------------------|--------16------------------|
----------------------------|----------------------------|
----------------------------|----------------------------|
----------------------------|----------------------------|
----------------------------|----------------------------|

                                                            4x
   S  S  S  S  H.               S  S  S  S  H.            
--18-15----18-15------------|--18-15----18-15------------|
--------15------------------|--------15------------------|
----------------------------|----------------------------|
----------------------------|----------------------------|
----------------------------|----------------------------|
----------------------------|----------------------------|

   S  S  S  S  H.               S  S  S  S  H.                            
--20-17----20-17------------|--19-16----19-16------------|
--------17------------------|--------16------------------|
----------------------------|----------------------------|
----------------------------|----------------------------|
----------------------------|----------------------------|
----------------------------|----------------------------|

__________________________________________________

2nd solo:

   E   E   E   E   E   E   Q     
--------------------------------|
--------------13b---------------|
--11--12--14----------14~-------|
--------------------------------| 3x
--------------------------------|
--------------------------------|

   E   E   E  E  E   E    S  S  E   
-----------------------------------|
--------------------15b--13--------|
--11--12--14----------------14~----|
-----------------------------------|
-----------------------------------|
-----------------------------------|

   E   E   E   E   E   E   Q     
--------------------------------|
--------------13b---------------|
--11--12--14----------14~-------|
--------------------------------| 3x
--------------------------------|
--------------------------------|

   E   E   E   E   E   E   E   E    
-----------------------------------|
--------------13b-----13b-----13b--|
--11--12--14-----------------------|
-----------------------------------| 
-----------------------------------|
-----------------------------------|


  E   E    E   E     E   E     Q       E   E  Q    E  E   E  S  S  
------------------------------------|-----------------7~-----3s-5-|
-----13b------13pb------13br--------|---------8-------------------|
------------------------------------|--------------7--------------|
------------------------------------|-----/7----------------------|
------------------------------------|-----------------------------|
------------------------------------|-----------------------------|


  Q     E.  S Q     Q       S S S S S S S S Q     S S S S  
---~--------5------------|--------------------------------|
--------8-----7~----7----|--8-7-5-7-----------------------|
-------------------------|----------7-5-7-7-5~----7-5---7-|
-------------------------|--------------------------------|
-------------------------|--------------------------------|
-------------------------|--------------------------------|


                       SH                                      
                                                         3     
    E  S  S S  S E     Q     E  E     Q    Q      Q.     E.    
-----------------------------------|--------------------------|
-------8-10------------------------|--------------------------|
--7s9-------7----------------------|--------------------------|
--------------10-7~--<>7~----5--7--|-------6br----------------|
-----------------------------------|--------------------------|
-----------------------------------|---------------------5s---|


  H         E  E  Q        E  E   E  E  Q      E  E   
------------------------|----------------------------|
------------------------|----------------------------|
------------------------|----------------------------|
------------------------|----------------------------|
------------------6b----|-----6b-----x--6br----------|
--8~-----------x--------|-------------------------3--|


   S  E.   H         Q        E  E   E  S S  E  E    E  E    
---------------------------|--------------------------------|
---------------------------|--------------------------------|
---------------------------|--------------------------------|
------4~-------------------|-----6b-------6b-L--6pb--6------|
---------------------------|------------x-------------------|
--(2)----------------x\----|------------x---------------5s--|


                           |-----3-----|                  
  H         E  E  Q        Q     Q     Q     Q.       E   
------------------------|--------------------------------|
------------------------|--------------------------------|
------------------------|--------------------------------|
------------------------|--------------------------------|
------------------6b----|--6b----6b----6b----6br---------|
--8~-----------x--------|-----------------------------3--|


   S  E.   Q    E  E  S S   S  S    E  S  S  H         S  S S  S  
---------------------------------|-------------------------------|
---------------------------------|-------------------------------|
---------------------------------|-------19b----------17-19------|
------4~---4----4--4----4S-19s-7-|--x-------------------------19-|
---------------------------------|--x----------------------------|
--(2)-----------------5----------|-------------------------------|


   S    S  E   E   E   E.    E.   E     E   S  S  S  S  E   E   S  S E   E   
-------------------------------------|--------------------------------------|
--20br-20----------------------------|----------------------------17----19--|
----------19--17--19--19b---19---17--|-----16-17-16----16--17\--------------|
-------------------------------------|--------------19----------------------|
-------------------------------------|--------------------------------------|
-------------------------------------|--------------------------------------|


   S  T  T  S  Q     S  S  S  E   S  S  E   
-------------------------------------------|
-----17-19-20-20-------17-19-19--17-19-19--|
-------------------------------------------|
-------------------------------------------|
-------------------------------------------|
-------------------------------------------|


                           |---3---|   |---3---|   
   S  S  S  S  S  S  S  S  E   E   E   E   E   E   
--------------------------------------------------|
--17-20-17-19-17-20-17-19-22--20--19--20--19--17--|
--------------------------------------------------|
--------------------------------------------------|
--------------------------------------------------|
--------------------------------------------------|


                     |---3---|                                                  
   E   E   E   S  S  E   E   E   Q        E   E   E   S  S  E   E   S  S  S  S  
---------------------------------------|---------------------------------------|
---------------------------------------|---------13-----15b----15--13-15----15-|
--17--19~-----16-16-19--16--16--16~----|-----14------14------------------14----|
---------------------------------------|---------------------------------------|
---------------------------------------|---------------------------------------|
---------------------------------------|---------------------------------------|


   E    E   S  S  S  S  S  S  E   E   E   
--15b-------------------------------------|
-------15--13-12-13-12--------------------|
-----------------------14-12-14~----------|
------------------------------------------|
------------------------------------------|
--------------------------------------x\--|
____________________________________________________

Outro Riff:

   Q     Q     Q     S  S  S  S     S  S  S  S  S S  S  S  S E.    S E.   
--------------------------------|-----------------------------------------||
--------------------------------|-----------------------------------------||
--------------------------------|-----------------------------------------||
--------------------10----------|--10-------------------------------------||
--12----12----12-------12-10----|-----12-10-------------------------------||
-----------------------------12-|-----------12-10-8-10-12-10-8----10-8----||


---------------
Riff 1.1 2x
Riff 1.2
Riff 1.3
Riff 1.1 2x
Riff 2.1a
Riff 1.1
Riff 1.2
Riff 2.2

1st Solo
Riff 1.4
Riff 1.2
Riff 2.1
Appregio's

2nd solo
Riff 1.1 2x
Riff 2.2
Appregio's
Riff 1.1
Outro Riff

Duration Legend
---------------
W - whole
H - half
Q - quarter
E - 8th
S - 16th
T - 32nd
X - 64th
. - note dotted
|-n-|  - n-tuplets


Tablature Legend
----------------
L - tied note
x - dead note
(n) - ghost note
NH - natural harmonic
SH - semi harmonic
h - hammer on
p - pull off
b - bend
br - bendRelease
pb - preBend
pbr - preBendRelease
S -  slide
/ -  slide into from below or out of upwards
\ -  slide into from above or out of downwards
~ - vibrato
comments
print report bad tab
4 comments total. Showing first comments.
+1 reply
rd93 wrote on March 7 2010, 01:31 pm

The other tab has the correct version of the arpeggios, but otherwise it's perfect.

-1 reply
CavemanJB wrote on June 27 2012, 04:20 pm

I believe Josh Homme plays that intro riff at the 5th fret.

+1 reply
bensickles wrote on January 1 2013, 01:15 am

still the same notes^

I want to post or [tab]
guest
You may want to rate the tab now too:
select rating
Please do not post tabs as comments. Select "correction" instead!