Oops, an error
Loading. Please wait.

A Tower Of Ashes Tab

ver1
ver1

Whole song

Interactive

More versions @911Tabs.com
1,573 views 9 this week
no commentswrite comment
1 2 3 4 5
please rate
Autoscroll
+/-
esc
set tempo
stop
Hey! There's an official Ultimate Guitar app which is ideal
for learning songs when you're away from computer. Get the app
WARNING: You are trying to view
                                    content from Ultimate-Guitar.com
                                    in an unauthorized application,
                                    which is prohibited.

                                    Please use an official Ultimate
                                    Guitar Tabs application for iPhone,
                                    iPad or Android to access legitimate
                                    chords, guitar, bass, and drum tabs
                                    from Ultimate-Guitar.com database.

                                    Type "ultimate guitar tabs" in Apple
                                    App Store's or Android Market's
                                    search to find the application.
#----------------------------------PLEASE NOTE---------------------------------#
#This file is the author's own work and represents their interpretation of the #
#song. You may only use this file for private study, scholarship, or research. #
#------------------------------------------------------------------------------##

                                A TOWER OF ASHES
                            As recorded by Theocracy
                      (From the 2008 Album MIRROR OF SOULS)

Words and Music by Matt Smith
Transcribed by Yoykex plethera@web.de

          D#m                  G#                    B                   F#
      0 2 2 0 0 0          x 0 2 2 2 0          x 3 2 0 1 0          3 2 0 0 3 3

          A#m                 C#/F                  D#5                D#5VII
      x 2 4 4 3 2          2 x 0 2 3 x          0 2 2 x x x          x 7 9 9 x x

          C#5                 C#5V                  B5                   G#5
      x x 0 2 3 x          x 5 7 7 x x          x 3 5 5 x x          x 0 2 2 x x

         G#5V                  F#5                  A#5                A#5VII
      5 7 7 x x x          3 5 5 x x x          x 2 4 4 x x          7 9 9 x x x

         F#/A#                C#/E#                E#/A                G#5/D#
      x 2 5 x x x          2 5 x x x x          x 1 4 x x x          0 0 x x x x

        C#5/G#               F#5/C#             D#m(type 2)          A#m(type 2)
      x 0 0 x x x          x x 0 0 x x          x x 2 0 x x          x 2 0 x x x

Gtr I (D# G# C# F# A# D#) - 'Rhythm Guitar 1'
Gtr II (D# G# C# F# A# D#) - 'Rhythm Guitar 2'
Gtr III (D# G# C# F# A# D#) - 'Lead Guitar'
Gtr IV (D# G# C# F# A# D#) - 'Acoustic Guitar'

 Intro - 0:00
  Moderate Rock Q=110
               D#m                 G#
 4/4
             Gtr IV
  W            E. S E E. S E E E   E. S E E. S E E E
               |  | | |  | | | |   |  | | |  | | | |
               /  / / /  / / / /   /  / / /  / / / /

  Wx8          W                   W
|------------|-------------------|-------------------|
|------------|-------------------|-------------------|
|------------|-------------------|-------------------|
|------------|-------------------|-------------------|
|------------|-------------------|-------------------|
|------------|-------------------|-------------------|


  B      F#           B      F#     C#/F
  E. S E E. S E E E   E. S E E. S E Q
  |  | | |  | | | |   |  | | |  | | |
  /  / / /  / / / /   /  / / /  / / /

  W                   W
|-------------------|--------------------|
|-------------------|--------------------|
|-------------------|--------------------|
|-------------------|--------------------|
|-------------------|--------------------|
|-------------------|--------------------|


  D#m                 G#
  E. S E E. S E E E   E. S E E. S E E E
  |  | | |  | | | |   |  | | |  | | | |
  /  / / /  / / / /   /  / / /  / / / /

  W                   W
|-------------------|-------------------|
|-------------------|-------------------|
|-------------------|-------------------|
|-------------------|-------------------|
|-------------------|-------------------|
|-------------------|-------------------|


         A#m          B      C#/F
  E. S E E. S E E E   E. S E E. S E  Q
  |  | | |  | | | |   |  | | |  | |  |
  /  / / /  / / / /   /  / / /  / /  /

                                    Gtr I
  W                   H.             Q
|-------------------|--------------------|
|-------------------|--------------------|
|-------------------|--------------------|
|-------------------|--------------------|
|-------------------|--------------------|
|-------------------|---------------12\--|


    D#5               G#5
    Gtr I
      PM|   PM|   PM    PM|   PM|   PM|
    E E E E E E E E   E E E E E E E S S
||------------------|-------------------|
||o-----------------|-------------------|
||------------------|-2-----2-----2-----|
||--2-----2-----2---|-2-2-2-2-2-2-2-----|
||o-2-2-2-2-2-2-2-2-|-0-0-0-0-0-0-0-0-2-|
||--0-0-0-0-0-0-0-0-|-------------------|
|
|   Gtr II
|     PM|   PM|   PM    PM|   PM|   PM|
|   E E E E E E E E   E E E E E E E S S
||------------------|-------------------|
||o-----------------|-------------------|
||------------------|-2-----2-----2-----|
||--2-----2-----2---|-2-2-2-2-2-2-2-----|
||o-2-2-2-2-2-2-2-2-|-0-0-0-0-0-0-0-0-2-|
||--0-0-0-0-0-0-0-0-|-------------------|


  B5     F#5           B5     F#5
     PM|         PM|      PM|
  Q  S S E +Q.   S S   Q  S S E +Q    S  S E
|--------------------|------------------------|
|--------------------|------------------------|
|-5------------------|-5----------------------|
|-5------5-(5)-------|-5------5-(5)-----------|
|-3--2-0-5-(5)---0-2-|-3--2-0-5-(5)-----------|
|--------3-(3)-------|--------3-(3)---3-------|
|
|    PM|         PM|      PM|         ~~~
| Q  S S E +Q.   S S   Q  S S E +Q    Q
|--------------------|------------------------|
|--------------------|------------------------|
|-5------------------|-5----------------------|
|-5------5-(5)-------|-5------5-(5)-----------|
|-3--2-0-5-(5)---0-2-|-3--2-0-5-(5)-----------|
|--------3-(3)-------|--------3-(3)--[3]------|


  D#5               G#5                    A#5
  Gtrs I, II
    PM|   PM|   PM    PM|   PM|   PM               PM|
  E E E E E E E E   E E E E E E E E   Q.   E +Q.   S S
|-----------------|-----------------|------------------|
|-----------------|-----------------|------------------|
|-----------------|-2-----2-----2---|-2----4-(4)-------|
|-2-----2-----2---|-2-2-2-2-2-2-2-2-|-2----4-(4)-------|
|-2-2-2-2-2-2-2-2-|-0-0-0-0-0-0-0-0-|-0----2-(2)---0-2-|
|-0-0-0-0-0-0-0-0-|-----------------|------------------|


 1.                     2.
  B5     C#5             B5     C#5
                        5/4
     PM|                    PM|
  Q  S S E +Q    Q       Q  S S E H    Q
|---------------------||-------------------|
|--------3-(3)-------o||--------3----------|
|-5------2-(2)--------||-5------2----------|
|-5------0-(0)--------||-5------0----------|
|-3--2-3-------------o||-3--2-3------------|
|---------------12\---||-------------------|


  Faster Q=171
  D#5                    G#5
 4/4
  Gtr III
  S S S S Q  +Q.   S S   Q.    E +Q.   S S
|-------5-7--(7)---5---|-5-----------------|
|-5-7-8--------------8-|-------5-(5)---5-7-|
|----------------------|-------------------|
|----------------------|-------------------|
|----------------------|-------------------|
|----------------------|-------------------|
|
| Gtrs I, II
|                                      PM|
| W                      H..           S S
|----------------------|-------------------|
|----------------------|-------------------|
|----------------------|-2-----------------|
|-2--------------------|-2-----------------|
|-2--------------------|-0-------------0-2-|
|-0--------------------|-------------------|


  B5     F#5           B5     F#5    N.C.(E#5)
  Q  S S E +Q.   S S   Q  S S E +H
|--------------------|-------------------|
|-8--7-5---------5-7-|-8--7-5------------|
|--------7-(7)-------|--------7-(7)------|
|--------------------|-------------------|
|--------------------|-------------------|
|--------------------|-------------------|
|
|                PM|                 ~
| Q  S S E +Q.   S S   Q  S S E +Q   Q
|--------------------|-------------------|
|--------------------|-------------------|
|-5------------------|-5-----------------|
|-5------5-(5)-------|-5------5-(5)------|
|-3--2p0-5-(5)---0-2-|-3--2p0-5-(5)------|
|--------3-(3)-------|--------3-(3)--2---|


  D#5                    G#5
  S S S S Q  +Q.   S S   Q.   E +Q   E E
|-------5-7--(7)---5---|-5---------------|
|-5-7-8--------------8-|------5-(5)--5-7-|
|----------------------|-----------------|
|----------------------|-----------------|
|----------------------|-----------------|
|----------------------|-----------------|
|
| W                      W
|----------------------|-----------------|
|----------------------|-----------------|
|----------------------|-2---------------|
|-2--------------------|-2---------------|
|-2--------------------|-0---------------|
|-0--------------------|-----------------|


              A#5                 B5        C#5
  H..                       S S   Q     S S E +H
|-------------------------------|-----------------------------|
|---------------------------5-7-|-8-----7-5-7-(7)-------------|
|-7-----------------------------|-----------------------------|
|-------------------------------|-----------------------------|
|-------------------------------|-----------------------------|
|-------------------------------|-----------------------------|
|
| E   S S S S E +E  S S S S S S   E S S S S E +E  S S S S S S
|-------------------------------|-----------------------------|
|-------------------------------|-----------3-(3)-------------|
|-2-----------4-(4)-------------|-5---------2-(2)-------------|
|-2-----------4-(4)-------------|-5---------0-(0)-0-0-0-0-0-0-|
|-0---0-0-0-0-2-(2)-2-2-2-2-2-2-|-3-3-3-3-3-------------------|
|-------------------------------|-----------------------------|


  D#5VII                              G#5
  S S S S Q       +Q.           S S   Q.         E   +Q.           S S
|-------5-7-------(7)-----------5---|-5--------------------------------|
|-5-7-8---------------------------8-|------------5---(5)-----------5-7-|
|-----------------------------------|----------------------------------|
|-----------------------------------|----------------------------------|
|-----------------------------------|----------------------------------|
|-----------------------------------|----------------------------------|
|
|     PM--------------------------|      PM--------------------------|
| E   S S S S S S  S  S S S S S S S   E  S S S S S S  S  S S S S S S S
|-----------------------------------|----------------------------------|
|-----------------------------------|----------------------------------|
|-9---------------------------------|----------------------------------|
|-9---------------------------------|----------------------------------|
|-7---7-7-7-7-7-7--7--7-7-7-7-7-7-7-|-0--0-0-0-0-0-0--0--0-0-0-0-0-0-2-|
|-----------------------------------|----------------------------------|


  B5     F#5               B5     F#5    N.C.(E#5)
  Q  S S E +Q.       S S   Q  S S E +H
|------------------------|--------------------|
|-8--7-5-------------5-7-|-8--7-5-------------|
|--------7-(7)-----------|--------7-(7)-------|
|------------------------|--------------------|
|------------------------|--------------------|
|------------------------|--------------------|
|
|              PM--|                     ~
| Q  S S E +E  S S E S S   Q  S S E +Q   Q
|------------------------|--------------------|
|------------------------|--------------------|
|-5----------------------|-5------------------|
|-5------5-(5)-----------|-5------5-(5)-------|
|-3--2p0-5-(5)-------0-2-|-3--2p0-5-(5)-------|
|--------3-(3)-3-3-3-----|--------3-(3)--2----|


  D#5VII                              G#5
  S S S S Q       +Q.           S S   Q.         E   +Q        E   E
|-------5-7-------(7)-----------5---|-5--------------------------------|
|-5-7-8---------------------------8-|------------5---(5)-------5---7---|
|-----------------------------------|----------------------------------|
|-----------------------------------|----------------------------------|
|-----------------------------------|----------------------------------|
|-----------------------------------|----------------------------------|
|
|     PM--------------------------|      PM--------------------------|
| E   S S S S S S  S  S S S S S S S   E  S S S S S S  S  S S S S S S S
|-----------------------------------|----------------------------------|
|-----------------------------------|----------------------------------|
|-----------------------------------|----------------------------------|
|-----------------------------------|----------------------------------|
|-7---7-7-7-7-7-7--7--7-7-7-7-7-7-7-|-0--0-0-0-0-0-0--0--0-0-0-0-0-0-0-|
|-0---------------------------------|----------------------------------|


              A#5                 B5        C#5
  H..                       S S   Q     S S E +E  E   E   E
|-------------------------------|------------------------------|
|---------------------------5-7-|-8-----7-5-7-(7)-5---7---8----|
|-7-----------------------------|------------------------------|
|-------------------------------|------------------------------|
|-------------------------------|------------------------------|
|-------------------------------|------------------------------|
|
| E   S S S S E +E  S S S S S S   E S S S S E +E  S S S S S S
|-------------------------------|------------------------------|
|-------------------------------|-----------3-(3)--------------|
|-2-----------4-(4)-------------|-5---------2-(2)--------------|
|-2-----------4-(4)-------------|-5---------0-(0)-0-0-0-0-0-0--|
|-0---0-0-0-0-2-(2)-2-2-2-2-2-2-|-3-3-3-3-3--------------------|
|-------------------------------|------------------------------|


 Verse - 1:33
  F#5
  Gtr I
   Q     Q     H         W                 W                 W
   |
   /

  Gtr III
  +Q    +Q     H         W                 W                 W
|----------------------|-----------------|-----------------|-----------------|
|-(8)---(8)\-----------|-----------------|-----------------|-----------------|
|----------------------|-----------------|-----------------|-----------------|
|----------------------|-----------------|-----------------|-----------------|
|----------------------|-----------------|-----------------|-----------------|
|----------------------|-----------------|-----------------|-----------------|
|
| Gtr II
|     PM|      PM|   PM    PM|   PM|         PM|   PM|   PM    PM|   PM|
|  E  E  E   E E E E E   E E E E E E E E   E E E E E E E E   E E E E E E E E
|----------------------|-----------------|-----------------|-----------------|
|--3---------3-----3---|-3-----3-----3-4-|-3-----3-----3---|-3-----3-----3-4-|
|-----0--0-----0-0---0-|---0-0---0-0-----|---0-0---0-0---0-|---0-0---0-0-----|
|----------------------|-----------------|-----------------|-----------------|
|----------------------|-----------------|-----------------|-----------------|
|----------------------|-----------------|-----------------|-----------------|


      PM|   PM|   PM    PM|   PM|
    E E E E E E E E   E E E E E E E E
||------------------|-----------------|
||o-3-----3-----3---|-3-----3-----3-4-|
||----0-0---0-0---0-|---0-0---0-0-----|
||------------------|-----------------|
||o-----------------|-----------------|
||------------------|-----------------|


                   1.,2.               3.
    PM|   PM|   PM    PM|   PM|
  E E E E E E E E   E E E E E E E E  3x E E Q  H
|-----------------|------------------||-------------|
|-3-----3-----3---|-3-----3-----3-4-o||-3-----------|
|---0-0---0-0---0-|---0-0---0-0------||-------------|
|-----------------|------------------||-------------|
|-----------------|-----------------o||-------------|
|-----------------|------------------||-------------|


    D#5      G#5D#5       G#5D#5 G#5D#5 G#5
         PM|      PM    PM     PM     PM
    Q  E S S E  E E E   E E  E E E  E E E
||--------------------|-------------------|
||o-------------------|-------------------|
||--------------------|-----------------2-|
||--2--2--------2---2-|------2------2---2-|
||o-2--2-----0--2---2-|---0--2---0--2---0-|
||--0--0-0-0-0--0-0-0-|-0-0--0-0-0--0-0---|


             C#5G#5       C#5G#5 C#5G#5 C#5
         PM|      PM    PM     PM     PM
  +Q   E S S E  E E E   E E  E E E  E E E
|---------------------|--------------------|
|---------------------|-----------------3--|
|-(2)--2--------2---2-|------2------2---2--|
|-(2)--2-----0--2---2-|---0--2---0--2---0--|
|-(0)--0-0-0-0--0-0-0-|-0-0--0-0-0--0-0----|
|---------------------|--------------------|


             F#5C#5       F#5C#5 F#5C#5 F#5
         PM|      PM    PM     PM     PM
  +Q   E S S E  E E E   E E  E E E  E E E
|---------------------|-------------------|
|-(3)--3--------3---3-|------3------3-----|
|-(2)--2-----0--2---2-|---0--2---0--2-----|
|-(0)--0-0-0-0--0-0-0-|-0-0--0-0-0--0---5-|
|---------------------|---------------0-5-|
|---------------------|-----------------3-|


                    C#/E#       F#5   C#/D#5
        PM        PM          PM         PM
  +E  E E E +E  E E E   +E  E E E +E  E  E E
|---------------------|-------------------------||
|---------------------|------------------------o||
|---------------------|-------------------------||
|-(5)-5---5-(5)-5-----|---------5-(5)------2----||
|-(5)-5---5-(5)-5---5-|-(5)-5---5-(5)-5--2-2---o||
|-(3)-3-0-3-(3)-3-0-2-|-(2)-2-0-3-(3)-2--0-0----||


  B5
     PM---------------------------------------------------------
  Q  S S S S S S S S S S S S   S S S S S S S S S S S S S S S S
|----------------------------|---------------------------------|
|----------------------------|---------------------------------|
|-5--------------------------|---------------------------------|
|-5--------------------------|---------------------------------|
|-3--3-3-3-3-3-3-3-3-3-3-3-3-|-3-3-3-3-3-3-3-3-3-3-3-3-3-3-3-3-|
|----------------------------|---------------------------------|


  C#5V
 -----------------------------------------------------------------|
  S S S S S S S S S S S S S S S S   S S S S S S S S S S S S S S S S
|---------------------------------|------------------------------------|
|---------------------------------|------------------------------------|
|---------------------------------|------------------------------------|
|---------------------------------|------------------------------------|
|-5-5-5-5-5-5-5-5-5-5-5-5-5-5-5-5-|-5-5-5-5-5-5-5-5-5-5-5-5-5-5-5-5----|
|---------------------------------|------------------------------------|


  B5
  PM--------------------------------------------------------------|
  S S S S S S S S S S S S S S S S   S S S S S S S S S S S S S S S S
|---------------------------------|---------------------------------|
|---------------------------------|---------------------------------|
|---------------------------------|---------------------------------|
|---------------------------------|---------------------------------|
|-3-3-3-3-3-3-3-3-3-3-3-3-3-3-3-3-|-3-3-3-3-3-3-3-3-3-3-3-3-3-3-3-3-|
|---------------------------------|---------------------------------|


  D#5VII      C#5V           D#5C#5VB5
  Q.   E +Q   Q    +E  E E E E  E E E
|----------------|--------------------|
|----------------|--------------------|
|-9----9-(9)--7--|-(7)-7-7-7-9--7-7-5-|
|-9----9-(9)--7--|-(7)-7-7-7-9--7-7-5-|
|-7----7-(7)--5--|-(5)-5-5-5-7--5-5-3-|
|----------------|--------------------|


  B5
     PM---------------------------------------------------------
  Q  S S S S S S S S S S S S   S S S S S S S S S S S S S S S S
|----------------------------|---------------------------------|
|----------------------------|---------------------------------|
|-5--------------------------|---------------------------------|
|-5--------------------------|---------------------------------|
|-3--3-3-3-3-3-3-3-3-3-3-3-3-|-3-3-3-3-3-3-3-3-3-3-3-3-3-3-3-3-|
|----------------------------|---------------------------------|


  C#5V
 ---------------------------------------------------------------|
  S S S S S S S S S S S S S S S S   S S S S S S S S S S S S S S E
|---------------------------------|----------------------------------|
|---------------------------------|----------------------------------|
|---------------------------------|----------------------------------|
|---------------------------------|----------------------------------|
|-5-5-5-5-5-5-5-5-5-5-5-5-5-5-5-5-|-5-5-5-5-5-5-5-5-5-5-5-5-5-5-2----|
|---------------------------------|----------------------------------|


 Pre-Chorus 1&2 - 2:35,3:42
  $
  D#m(type 2)                       A#m
  Gtr III
   E  E    E    E  E    E    E  E    E  E    E    E  E    E    E  E
|----15---14---15-17---15---14-15-|----14---12---14-15---14---12-14-|
|-12------------------------------|-12------------------------------|
|---------------------------------|---------------------------------|
|---------------------------------|---------------------------------|
|---------------------------------|---------------------------------|
|---------------------------------|---------------------------------|
|
| Gtrs I, II
|     PM-----|     PM-----|     PM      PM-----|     PM-----|     PM
|  E  S S  S S  E  S S  S S  E  E    E  S S  S S  E  S S  S S  E  E
|---------------------------------|---------------------------------|
|---------------------------------|---------------------------------|
|--0------------0------------0----|---------------------------------|
|-----2-2--2-2-----2-2--2-2-----2-|--0------------0------------0----|
|---------------------------------|-----2-2--2-2-----2-2--2-2-----2-|
|---------------------------------|---------------------------------|


  D#m(type 2)                       A#m
   E  E    E    E  E    E    E  E    E  E    E    E  E    E    E  E
|----15---14---15-17---15---14-15-|----14---12---14-15---14---12-14--|
|-12------------------------------|-12-------------------------------|
|---------------------------------|----------------------------------|
|---------------------------------|----------------------------------|
|---------------------------------|----------------------------------|
|---------------------------------|----------------------------------|
|
|     PM-----|     PM-----|     PM      PM-----|     PM-----|     PM
|  E  S S  S S  E  S S  S S  E  E    E  S S  S S  E  S S  S S  E  E
|---------------------------------|----------------------------------|
|---------------------------------|----------------------------------|
|--0------------0------------0----|----------------------------------|
|-----2-2--2-2-----2-2--2-2-----2-|--0------------0------------0-----|
|---------------------------------|-----2-2--2-2-----2-2--2-2-----2--|
|---------------------------------|----------------------------------|


  B5                           F#/A#
   E  E    E  E  E   E  E  E    E  E    E  E  E   E  E  E
|----15---14-15-17--15-14-15-|----15---14-15-17--15-14-15-|
|-13-------------------------|-12-------------------------|
|----------------------------|----------------------------|
|----------------------------|----------------------------|
|----------------------------|----------------------------|
|----------------------------|----------------------------|
|
|  PM-----|          PM    PM----------|          PM    PM-
|  E  S S  E  E +E   E  E  E    E  S S  E  E +E   E  E  E
|----------------------------|----------------------------|
|----------------------------|----------------------------|
|----------------------------|----------------------------|
|-------------5-(5)-----5----|-------------5-(5)-----5----|
|--3--3-3--3---------3-----3-|--2--2-2--2---------2-----2-|
|----------------------------|----------------------------|


  E#/A                         A#5
   E  E    E  E  E   E  E  E    E  E    E  E  E   E  E  E
|----14---12-14-15--14-12-14-|----14---12-14-15--14-12-14-|
|-11-------------------------|-12-------------------------|
|----------------------------|----------------------------|
|----------------------------|----------------------------|
|----------------------------|----------------------------|
|----------------------------|----------------------------|
|
|---------|          PM    PM----------|          PM    PM
|  E  S S  E  E +E   E  E  E    E  S S  E  E +E   E  E  E
|----------------------------|----------------------------|
|----------------------------|----------------------------|
|----------------------------|----------------------------|
|-------------4-(4)-----4----|-------------4-(4)-----4----|
|--1--1-1--1---------1-----1-|--2--2-2--2---------2-----0-|
|----------------------------|----------------------------|


  B5                   F#/A#                     E#/A
   E  E  E  E  E  E  E  E    E  E  E  E  E  E  E  E
|----15-14-15-17-15-14-15-|----15-14-15-17-15-14-15-|
|-13----------------------|-12----------------------|
|-------------------------|-------------------------|
|-------------------------|-------------------------|
|-------------------------|-------------------------|
|-------------------------|-------------------------|
|
|     PM|      PM|              PM|      PM|
|  E  E  E  E  E  E  E  E    E  E  E  E  E  E  E  E
|-------------------------|-------------------------|
|-------------------------|-------------------------|
|-------------------------|-------------------------|
|--5--------5--------5--5-|--5--------5--------5--4-|
|--3--3--3--3--3--3--3--2-|--2--2--2--2--2--2--2--1-|
|-------------------------|-------------------------|


                       A#5
   E  E  E  E  E  E  E  E    W
|----14-12-14-15-14-12-14-|--------------------------|
|-11----------------------|-12tr13-------------------|
|-------------------------|--------------------------|
|-------------------------|--------------------------|
|-------------------------|--------------------------|
|-------------------------|--------------------------|
|
|     PM|      PM|                  PM      PM
|  E  E  E  E  E  E  E  E    Q      E E +E  E S S E
|-------------------------|--------------------------|
|-------------------------|--------------------------|
|-------------------------|--------------------------|
|--4--------4--------4--4-|--4--------4-(4)----------|
|--1--1--1--1--1--1--1--2-|--2------2-2-(2)-2-2h3-0--|
|-------------------------|--------------------------|


   H.                Q        W
|-14tr15------------14/----|-19tr20-----------------|
|--------------------------|------------------------|
|--------------------------|------------------------|
|--------------------------|------------------------|
|--------------------------|------------------------|
|--------------------------|------------------------|
|
|         PM      PM
|  Q      E E +E  E  S S E    Q      S S E Q  S S E
|--------------------------|------------------------|
|--------------------------|------------------------|
|--------------------------|------------------------|
|--4--------4-(4)----------|--4------------4--------|
|--2------2-2-(2)-2--2h3-0-|--2------2h3-0-2--2h3-0-|
|--------------------------|------------------------|


   E      +E   +Q    +Q.    +E   a
|-14b15==(14)-(14)--(14)---(14)r14-|
|----------------------------------|
|----------------------------------|
|----------------------------------|
|----------------------------------|
|----------------------------------|
|
|  E       E    Q     H
|----------------------------------|
|----------------------------------|
|----------------------------------|
|--4-------------------------------|
|--2-------------------------------|
|----------------------------------|


 Chorus 1&2 - 2:56,4:03
  D#5            B5          F#5            C#5
  Gtrs I, II
   W              W           W              W
   |              |           |              |
   /              /           /              /

  Gtr III
   H.       Q     W           H.       Q     Q.    E   +Q    Q
|-12-------14--|-15--------|----------15--|-14----12--(12)------|
|--------------|-----------|-15-----------|-----------------15--|
|--------------|-----------|--------------|---------------------|
|--------------|-----------|--------------|---------------------|
|--------------|-----------|--------------|---------------------|
|--------------|-----------|--------------|---------------------|


                                           To Coda
  D#5         G#5         C#5         F#5
   W           W           W           H        H
   |           |           |           |        |
   /           /           /           /        /

   W           W           W           H        H
|-12--------|-17--------|-----------|-14b15----14-----|
|-----------|-----------|-15--------|-----------------|
|-----------|-----------|-----------|-----------------|
|-----------|-----------|-----------|-----------------|
|-----------|-----------|-----------|-----------------|
|-----------|-----------|-----------|-----------------|


  D#5            B5          F#5                   C#5
   W              W           W                     W
   |              |           |                     |
   /              /           /                     /

   H.       Q     W           Q.    E   +Q    Q     Q.    E  +Q    Q
|-12-------14--|-15--------|-19----17--(17)--15--|-14----12-(12)------|
|--------------|-----------|---------------------|----------------15--|
|--------------|-----------|---------------------|--------------------|
|--------------|-----------|---------------------|--------------------|
|--------------|-----------|---------------------|--------------------|
|--------------|-----------|---------------------|--------------------|


  B5          C#5         F#5                    C#/E#
   W           W           W           +H     Q  Q
   |           |           |            |     |  |
   /           /           /            /     /  /

   W           W           W           +W
|-----------|-----------|-----------|-----------------|
|-13--------|-15--------|-----------|-----------------|
|-----------|-----------|-12--------|-(12)------------|
|-----------|-----------|-----------|-----------------|
|-----------|-----------|-----------|-----------------|
|-----------|-----------|-----------|-----------------|


 Bridge - 3:19
  D#5        G#5             B5     F#5           B5     F#5    N.C.(E#5)
  Gtrs I, II
                       PM|                  PM|                 ~
  W          H..       S S   Q  S S E +Q.   S S   Q  S S E +Q   Q
|----------|---------------|--------------------|------------------|
|----------|---------------|--------------------|------------------|
|----------|-2-------------|-5------------------|-5----------------|
|-2--------|-2-------------|-5------5-(5)-------|-5------5-(5)-----|
|-2--------|-0---------0-2-|-3--2p0-5-(5)---0-2-|-3--2p0-5-(5)-----|
|-0--------|---------------|--------3-(3)-------|--------3-(3)--2--|


  D#5        G#5        B5        A#5
  W          W          E S S S S E +E  S S S S S S
|----------|----------|-----------------------------|
|----------|----------|-----------------------------|
|----------|-2--------|-2---------4-(4)-------------|
|-2--------|-2--------|-2---------4-(4)-------------|
|-2--------|-0--------|-0-0-0-0-0-2-(2)-2-2-2-2-2-2-|
|-0--------|----------|-----------------------------|


  B5        C#5
  E S S S S E +E  S S S S S S
|-----------------------------|
|-----------3-(3)-------------|
|-5---------2-(2)-------------|
|-5---------0-(0)-0-0-0-0-0-0-|
|-3-3-3-3-3-------------------|
|-----------------------------|


  D#5VII                          G#5
    PM------------------------|     PM------------------------|
  E S S S S S S S S S S S S S S   E S S S S S S S S S S S S S S
|-------------------------------|-------------------------------|
|-------------------------------|-------------------------------|
|-9-----------------------------|-------------------------------|
|-9-----------------------------|-------------------------------|
|-7-7-7-7-7-7-7-7-7-7-7-7-7-7-7-|-0-0-0-0-0-0-0-0-0-0-0-0-0-0-2-|
|-------------------------------|-------------------------------|


  B5     F#5               B5     F#5    N.C.(E#5)
               PM--|                     ~
  Q  S S E +E  S S E S S   Q  S S E +Q   Q
|------------------------|--------------------|
|------------------------|--------------------|
|-5----------------------|-5------------------|
|-5------5-(5)-----------|-5------5-(5)-------|
|-3--2p0-5-(5)-------0-2-|-3--2p0-5-(5)-------|
|--------3-(3)-3-3-3-----|--------3-(3)--2----|


  D#5VII                          G#5
    PM------------------------|     PM------------------------|
  E S S S S S S S S S S S S S S   E S S S S S S S S S S S S S S
|-------------------------------|-------------------------------|
|-------------------------------|-------------------------------|
|-------------------------------|-------------------------------|
|-------------------------------|-------------------------------|
|-7-7-7-7-7-7-7-7-7-7-7-7-7-7-7-|-0-0-0-0-0-0-0-0-0-0-0-0-0-0-0-|
|-0-----------------------------|-------------------------------|


                                                D.S. al Coda
            A#5                 B5        C#5
  E S S S S E +E  S S S S S S   E S S S S E +E  S S S S S S
|-----------------------------|-------------------------------|
|-----------------------------|-----------3-(3)---------------|
|-2---------4-(4)-------------|-5---------2-(2)---------------|
|-2---------4-(4)-------------|-5---------0-(0)-0-0-0-0-0-0---|
|-0-0-0-0-0-2-(2)-2-2-2-2-2-2-|-3-3-3-3-3---------------------|
|-----------------------------|-------------------------------|


  &
  D#5            B5          F#5                   C#5
  Gtrs I, II
   W              W           W                     W
   |              |           |                     |
   /              /           /                     /

  Gtr III
   H.       Q     W           Q.    E   +Q    Q     Q.    E  +Q    Q
|-12-------14--|-15--------|-19----17--(17)--15--|-14----12-(12)------|
|--------------|-----------|---------------------|----------------15--|
|--------------|-----------|---------------------|--------------------|
|--------------|-----------|---------------------|--------------------|
|--------------|-----------|---------------------|--------------------|
|--------------|-----------|---------------------|--------------------|


                                                 Q=150
  B5          C#5         B5          C#5
   W           W           W           H.      Q
   |           |           |           |       |
   /           /           /           /       o

   W           W           W           W
|-----------|-----------|-----------|----------------|
|-13--------|-15--------|-13--------|-15-------------|
|-----------|-----------|-----------|----------------|
|-----------|-----------|-----------|----------------|
|-----------|-----------|-----------|----------------|
|-----------|-----------|-----------|----------------|


  H.=H                                                    Q=120
  B5                   C#5V                   F#5         C#/E#
   Q.    E  +Q    Q     Q.    E  +Q     Q      W           W
|-------15-(15)--19--|-17----15-(15)---14---|-15--------|-14----------------|
|-17-----------------|----------------------|-----------|-------------------|
|--------------------|----------------------|-----------|-------------------|
|--------------------|----------------------|-----------|-------------------|
|--------------------|----------------------|-----------|-------------------|
|--------------------|----------------------|-----------|-------------------|
|
| Gtrs I, II
|                                    PM
|  W                    H        +E  E  Q      W           H    E E S S S S
|--------------------|----------------------|-----------|-------------------|
|--------------------|----------------------|-----------|-------------------|
|--5-----------------|--7--------(7)--------|-----------|-------------------|
|--5-----------------|--7--------(7)--------|--5--------|-------------------|
|--3-----------------|--5--------(5)--------|--5--------|--5----------------|
|--------------------|---------------0-12\--|--3--------|--2----2-3-3p2-3p2-|


  D#5
  TP          TP           TP           TP
  W          +W           +W           +W
|----------|------------|------------|--------|
|----------|------------|------------|--------|
|----------|------------|------------|--------|
|-2--------|-(2)--------|-(2)--------|-(2)----|
|-2--------|-(2)--------|-(2)--------|-(2)----|
|-0--------|-(0)--------|-(0)--------|-(0)----|


  S S S S E S S S Q  E.
|-----------------------*|
|-----------------------*|
|-----------------------*|
|-2-2-2-2---2-2-2-2-----*|
|-2-2-2-2---2-2-2-2-----*|
|-0-0-0-0---0-0-0-0-----*|


Duration Legend
---------------
W - whole; H - half; Q - quarter; E - 8th; S - 16th; T - 32nd; X - 64th; a - acciaccatura
+ - note tied to previous; . - note dotted; .. - note double dotted
Uncapitalized letters represent notes that are staccato (1/2 duration)
Irregular groupings are notated above the duration line
Duration letters will always appear directly above the note/fret number it represents the
duration for.  Duration letters with no fret number below them represent rests.  Multi-
bar rests are notated in the form Wxn, where n is the number of bars to rest for.  Low
melody durations appear below the staff

Tablature Legend
----------------
 h   - hammer-on
 p   - pull-off
 b   - bend
 pb  - pre-bend
 r   - bend release (if no number after the r, then release immediately)
 /\  - slide into or out of (from/to "nowhere")
 s   - legato slide
 S   - shift slide
  - natural harmonic
[n]  - artificial harmonic
n(n) - tapped harmonic
 ~   - vibrato
 tr  - trill
 T   - tap
 TP  - trem. picking
 PM  - palm muting
\n/  - tremolo bar dip; n = amount to dip
 \n  - tremolo bar down
 n/  - tremolo bar up
/n\  - tremolo bar inverted dip
 =   - hold bend; also acts as connecting device for hammers/pulls
 <>  - volume swell (louder/softer)
 x   - on rhythm slash represents muted slash
 o   - on rhythm slash represents single note slash

Misc Legend
-----------
 |  - bar
||  - double bar
||o - repeat start
o|| - repeat end
*|  - double bar (ending)
 :  - bar (freetime)
 $  - Segno
 &  - Coda
Tempo markers -  = BPM(8/16=s8/s16), where s8 = swing 8ths, s16 = swing 16ths


***************************************************************************************
* Generated using Power Tab Editor by Brad Larsen - http://powertab.guitarnetwork.org *
***************************************************************************************
comments
We did not receive enough feedback on this tab! Please rate:
print report bad tab
1 2 3 4 5
I want to post or [tab]
guest
You may want to rate the tab now too:
select rating
Please do not post tabs as comments. Select "correction" instead!