Oops, an error
Loading. Please wait.

Absolution Day Tab

ver2
ver2

Whole song

Interactive

More versions @911Tabs.com
898 views 3 this week
1 commentread comment
1 2 3 4 5
please rate
Autoscroll
+/-
esc
set tempo
stop
Contributor
Tuning
D# G# C# F# A# D#
Hey! There's an official Ultimate Guitar app which is ideal
for learning songs when you're away from computer. Get the app
WARNING: You are trying to view
                                    content from Ultimate-Guitar.com
                                    in an unauthorized application,
                                    which is prohibited.

                                    Please use an official Ultimate
                                    Guitar Tabs application for iPhone,
                                    iPad or Android to access legitimate
                                    chords, guitar, bass, and drum tabs
                                    from Ultimate-Guitar.com database.

                                    Type "ultimate guitar tabs" in Apple
                                    App Store's or Android Market's
                                    search to find the application.
-------------------------------------------------------------------------------

                             ABSOLUTION DAY - Theocracy

-------------------------------------------------------------------------------

Tabbed by: Andrew R Garcia
Email: garcia.gtr@gmail.com


Tuning: ½ step down (D#,A#,F#,C#,G#,D#)


INTRO
  
   |--(16x)------------|

|---------------------------------------------------------------------------|
|---12-0-13-0-12-0-10-0---12------------------------------------------------|
|---------------------------------------------------------------------------|
|---------------------------------------------------------------------------|
|---------------------------------------------------------------------------|
|---------------------------------------------------------------------------|



|--(2x)---------------------------------------------------------------------|
                                                  |--(4x)------------|

|---------12r--10-12-10-----------------------------------------------------|
|---12--------------------13-12---10-12-13--------12-0-13-0-12-0-10-0-------|
|-------9-------------------------------------------------------------------|
|---------------------------------------------------------------------------|
|---------------------------------------------------------------------------|
|---------------------------------------------------------------------------|


   |--(3x)--------------------------------|      |--(4x)------------|

|---------12r--10-12-10-----------------------------------------------------|
|---12--------------------13-12---10-12-13--------12-0-13-0-12-0-10-0---12--|
|-------9-------------------------------------------------------------------|
|---------------------------------------------------------------------------|
|---------------------------------------------------------------------------|
|---------------------------------------------------------------------------|



VERSE I (2x)

|---------------------------------------------------------------------------|
|---------------------------------------------------------------------------|
|---------------------------------------------------------------------------|
|---------------------------------------------------------------------------|
|---------------------------------------------------------------------------|
|---0---0-0-0-0-0-0---0-0-0-0-0-0---0-0-0-0-0-0---0-0-0-0-0-----------------|

|---------------------------------------------------------------------------|
|---------------------------------------------------------------------------|
|---5---------5---------5--------7---------7---------7----------------------|
|---5---------5---------5--------7---------7---------7----------------------|
|---3-3-3-3-3-3-3-3-3-3-3-3-3----5-5-5-5-5-5-5-5-5-5-5----------------------|
|---------------------------------------------------------------------------|




VERSE II

                    PM------------------------------------------------------|
|---------------------------------------------------------------------------|
|---------------------------------------------------------------------------|
|----------5--4-------------------------------------------------------------|
|-5--------5--4--2----------------------------------------------------------|
|-5--------3--2--2----------------------------------------------------------|
|-3--3-3---------0--3-3-3-3-5-5-5-5-7-7-7-7-8-8-8-8-7-7-7-7-5-5-5-5-3-3-3-3-|


|---------------------------------------------------------------------------|
|---------------------------------------------------------------------------|
|-------5----------------------------7--------------------------------------|
|--3----5----------------------------7--------------------------------------|
|--3----3----5-5-5-5-5-5-5-5-5-5-5-5-5--------------------------------------|
|--1------------------------------------------------------------------------|



-VERSE I 

-VERSE II




VERSE III

|--------------------------------------------------------------------------|
|--------------------------------------------------------------------------|
|--9-------7----5---------4----2-------5----7--------7---------------------|
|--9-------7----5---------4----2-------5----7----7---5---7-----------------|
|--7-------5----3---------2----0-------3----5----5-------5-----------------|
|-----0-0-----0------0-0-----0-----0-0----0----0---0---0---0---------------|


|--------------------------------------------------------------------------|
|--------------------------------------------------------------------------|
|--9-------7----5---------4----2-------5----7--------7----------9----------|
|--9-------7----5---------4----2-------5----7----7---5---7------9----------|
|--7-------5----3---------2----0-------3----5----5-------5------7----------|
|-----0-0-----0------0-0-----0-----0-0----0----0---0---0---0---------------|





|---------------------------------------------------------------------------|
|---------------------------------------------------------------------------|
|--9---------11---------12---------11---------9-----7-----------------------|
|--9-9-9-9-9-9--9-9-9-9-9--9-9-9-9-9--9-9-9-9-9-9-9-9-----------------------|
|---------------------------------------------------------------------------|
|---------------------------------------------------------------------------|




VERSE IV

Guitar I (Lead)

|---------------------(2x)---------------------|
|--(5x)----------|                                   |--(3x)------|
   
|--20---------------20------------22-----------------20--------------22~----|
|------17--20--17------17--20--17----17--20--17---------17--20--17----------|
|---------------------------------------------------------------------------|
|---------------------------------------------------------------------------|
|---------------------------------------------------------------------------|
|---------------------------------------------------------------------------|

Guitar II

|---------------------(2x)-------|
|---------------------------------------------------------------------------|
|---------------------------------------------------------------------------|
|--5------------------------------------5-------------------------------7---|
|--5-----------------5------4---2-------5-------------------------------7---|
|--3-3-3-3-3-3-3...--5------4---2-------3-3-3-3-3-3...--5-5-5-5-5-5-5-5-5---|
|--------------------3------2---0-------------------------------------------|





CHORUS (2x)

Guitar I 

|----------------------------------------22~-----22--20---------------------|
|--20~-----19--20--22—20~-----19--20--22-----------------20—15~-------------|
|---------------------------------------------------------------------------|
|---------------------------------------------------------------------------|
|---------------------------------------------------------------------------|
|---------------------------------------------------------------------------|



|---------------------------------------------------------------------------|
|--20-19-17----19-17-------17-----------------------------------------------|
|-----------19-------19-17----19-17-16-19-17-16-----------------------------|
|-----------------------------------------------19--------------------------|
|---------------------------------------------------------------------------|
|---------------------------------------------------------------------------|

Guitar II

|---------------------------------------------------------------------------|
|---------------------------------------------------------------------------|
|---------------------------------------------------------5------------7----|
|--5------4------2------4-----5-----5-----7---------------5------------7----|
|--5------2------2------2-----3-----5-----5-------3-3-3-3-3----5-5-5-5-5----|
|--3-------------0------------------3---------------------------------------|



FILL

|---------------------------------------------------------------------------|
|---------------------------------------------------------------------------|
|-5-------------------------------------------------------------------------|
|-5-------------------------------------------------------------------------|
|-3-----3--2--0-------------5-----------------------------------------------|
|----------------3--3-3-3-3-3-----------------------------------------------|



-VERSE I

-VERSE II

-VERSE III

-VERSE IV

-CHORUS




RIFF I

   |--(3x)--------------------------------|      |--(4x)------------|

|---------12r--10-12-10-----------------------------------------------------|
|---12--------------------13-12---10-12-13--------12-0-13-0-12-0-10-0---12~-|
|-------9-------------------------------------------------------------------|
|---------------------------------------------------------------------------|
|---------------------------------------------------------------------------|
|---------------------------------------------------------------------------|





RIFF II (6th string)

|--0-0-0-0-0-0-0-0---0-0--0-------------------------------------------------|


|--0-0-0-0-0-0-0-0---0-0--0---0-0-0---0-0-0-0-3~---0-0-0-0-0-0-0-0---0-0--0-|


|-0-0-0-0-0-0-0-0---0-0--0-----0-0-0--0-0-0--0-0-0--------------------------|


|-0-0-0-0-0-0-0-0---0-0--0-----0-0-0---0-0-0-0-3~---------------------------|


|0-0-0-0-0-0-0-0---0-0--0-----0-0-0--0-0-0--0-0-0---0-0-0-0-0-0-0-0---0-0--0|


|--0-0-0---0-0-0-0-3~----0-0-0-0-0-0-0-0---0-0--0-----0-0-0--0-0-0--0-0-0---|





ACOUSTIC/CLEAN SECTION (2x)

|----------------------------------------------------------0---------------|
|---------------2----------------------------2-----------0---0-------------|
|---------2-----------2--------------------2---2-------2-------2-----------|
|------4-----4----------4----------------4-------4---2-----------0---------|
|----4--------------------4------------4-----------0-----------------------|
|--2---------------------------------2-------------------------------------|


|--------0-----------------------------------------------------------------|
|-----3------3----------------------0--------------------------------------|
|---2----------2-------------1---------------------------------------------|
|-0------------------------2-----2-----------------------------------------|
|------------------------2-------------------------------------------------|
|----------------------0---------------------------------------------------|




BRIDGE

Guitar I

|----(7x)------------------|
|---------------------------------------------------------------------------|
|---------------------------------------------------------------------------|
|---------------------------------------------------------------------------|
|---------------------------------------------------------------------------|
|---------------------------------7-7-5-5-4-4-5-5-4-4-2-2-4-4-2-2-----------|
|--2--0--2--2-2-2--5--2--0--------------------------------------------------|

Guitar II

|----(4x)---------|
|---------------------------------------------------------------------------|
|---------------------------------------------------------------------------|
|---------------------------------------------------------------------------|
|-----------------------7---7---7---7---7---7---7---7---9---9---9---9-------|
|---------------------5---5---5---5---5---5---5---5---7---7---7---7---------|
|--2-0-2-0-2-0-2-0----------------------------------------------------------|

|---------------------------------------------------------------------------|
|---------------------------------------------------------------------------|
|---------------------------------------------------------------------------|
|---------------------------------------------------------------------------|
|--7-7-5-5-4-4-5-5-4-4-2-2-4-4-2-2------------------------------------------|
|---------------------------------------------------------------------------|




SOLO

|---------------------------------------------------------------------------|
|---------------------------------------------------------------------------|
|----------14---------------------------------------------------------------|
|--16---16----16-12----14-11------14------11--12-11-------------------------|
|----------------------------14------14-------------14---12-11--------------|
|---------------------------------------------------------------------------|


  |---PM--------------------------------------------------------|
|---------------------------------------------------------------------------|
|---------------------------------------------------------------------------|
|---------------------------------------------------------------------------|
|-------------9--12--11--9-------------------12--14--12---------------------|
|--9--11--12----------------12----12--14--16------------16--14--------------|
|---------------------------------------------------------------------------|





   |---PM---------------------------------------------------------------|
                                     |        (fast)                  |      
|---------------------------------------------------------------------------|
|---------------------------------------------------------------------------|
|---------------------------------------------------------------------------|
|--------------11--14--12--11---------14-12-11----------12-14-16-14-12------|
|--14--12--11------------------14--------------14-12-11---------------------|
|---------------------------------------------------------------------------|


 |---PM---------|                              |---PM-----------------------|
 |  (fast)      |  
|---------------------------------------------------------------------------|
|---------------------------------------------------------------------------|
|------------------14---13--14--16---14--13------14----13--14--16--14—16--14|
|-------------------------------------------14------14----------------------|
|-16-14-12-14-16------------------------------------------------------------|
|---------------------------------------------------------------------------|


                                        |---PM------------------------------|
|---------------------------------------------------------------------------|
|--14---12--14--15--17b--17-15-17-------17-17-15-15-14-14-15-15-14-14-------|
|---------------------------------------------------------------------16-16-|
|---------------------------------------------------------------------------|
|---------------------------------------------------------------------------|
|---------------------------------------------------------------------------|


|---PM----------|
|---------------------------------------------------------------------------|
|-14-14---------------------------------------------------------------------|
|-------16-16-14------------------------------------------------------------|
|---------------------------------------------------------------------------|
|---------------------------------------------------------------------------|
|---------------------------------------------------------------------------|




FINAL VERSE 


  |-(2x)-----------------------------------|
|---------------------------------------------------------------------------|
|---------------------------------------------------------------------------|
|--2---------2--------5-----------------------------------------------------|
|--2---------2--------5--------3--------5-----------------------------------|
|--0----0-0--0--------3--------3--------5-----------------------------------|
|------------------------------1--------3-----------------------------------|



RIFF III (2x)

|---------------------------------------------------------------------------|
|---------------------------------------------------------------------------|
|---------------------------------------------------------------------------|
|--5-------5--------------5-------------5-------------5------5-----5-----5--|
|--3---3-3-3-3-3-3----3-3-3-3-3-3---3-3-3-3-3-3---3-3-3-3-3--3-3-3-3-3-3-3--|
|---------------------------------------------------------------------------|


|---------------------------------------------------------------------------|
|---------------------------------------------------------------------------|
|---------------------------------------------------------------------------|
|------5-----8-----8-----8-----8--------------------------------------------|
|--3-3-3-3-3-6-6-6-6-6-6-6-6-6-6----7-------7-------------7-----------------|
|-----------------------------------5---5-5-5-5-5-5---5-5-5-5-5-5-----------|


|---------------------------------------------------------------------------|
|---------------------------------------------------------------------------|
|---------------------------------------------------------------------------|
|---------------------------------------------------------------------------|
|------7-------------7---------9-------9-------------9-------------9--------|
|--5-5-5-5-5-5---5-5-5-5-5-5---7---7-7-7-7-7-7---7-7-7-7-7-7---7-7-7-7-7-7--|


|---------------------------------------------------------------------------|
|---------------------------------------------------------------------------|
|---------------------------------------------------------------------------|
|---------------------------------------------------------------------------|
|------9--------------------------------------------------------------------|
|--7-7-7-7-7-7--------------------------------------------------------------|



-CHORUS (Repeat several times)



                                THE END




| /  slide up
| \  slide down
| r  bend release
| PM Palm muting

| h  hammer-on
| p  pull-off
| ~  vibrato
| +  harmonic
| x  Mute note
===============================================================================
comments
We did not receive enough feedback on this tab! Please rate:
print report bad tab
1 2 3 4 5
1 comment total.
0 reply
kylewise16 wrote on May 13 2014, 08:48 pm

Drop c#, it's drop D a half step down. Gives those chords on the 6th string more beef.

I want to post or [tab]
guest
You may want to rate the tab now too:
select rating
Please do not post tabs as comments. Select "correction" instead!