Oops, an error
Loading. Please wait.

Martyr Tab

ver1
ver1

Whole song

Interactive

More versions @911Tabs.com
4,404 views 12 this week
1 commentread comment
1 2 3 4 5
excellent!
x 2
Autoscroll
+/-
esc
set tempo
stop
Hey! There's an official Ultimate Guitar app which is ideal
for learning songs when you're away from computer. Get the app
WARNING: You are trying to view
                                    content from Ultimate-Guitar.com
                                    in an unauthorized application,
                                    which is prohibited.

                                    Please use an official Ultimate
                                    Guitar Tabs application for iPhone,
                                    iPad or Android to access legitimate
                                    chords, guitar, bass, and drum tabs
                                    from Ultimate-Guitar.com database.

                                    Type "ultimate guitar tabs" in Apple
                                    App Store's or Android Market's
                                    search to find the application.
#----------------------------------PLEASE NOTE---------------------------------#
#This file is the author's own work and represents their interpretation of the #
#song. You may only use this file for private study, scholarship, or research. #
#------------------------------------------------------------------------------##

                                     MARTYR
                            As recorded by Theocracy
                      (From the 2008 Album MIRROR OF SOULS)

Words and Music by Matt Smith
Transcribed by Yoykex plethera@web.de

          D#m                  D#5                C#5/D#               D#5VII
      0 2 2 0 0 0          0 2 2 x x x          0 0 0 x x x          x 7 9 9 x x

          C#5                  B5                   G#5                  F#5
      x 5 7 7 x x          x 3 5 5 x x          x 0 2 2 x x          3 5 5 x x x

          A#5                 F#/A#                C#/E#                G#5V
      x 2 4 4 x x          x 2 5 x x x          2 5 x x x x          5 7 7 x x x

         B5/F#               C#5/G#               A#5VII               C#5open
      3 3 5 x x x          5 5 7 x x x          7 9 9 x x x          x x 0 2 3 x

Gtr I (D# G# C# F# A# D#) - 'Rhythm Guitar 1'
Gtr II (D# G# C# F# A# D#) - 'Rhythm Guitar 2'
Gtr III (D# G# C# F# A# D#) - 'Lead Guitar 1'
Gtr IV (D# G# C# F# A# D#) - 'Lead Guitar 2'
Gtr V (D# G# C# F# A# D#) - 'Acoustic Lead'
Gtr VI (D# G# C# F# A# D#) - 'Acoustic Rhythm'

 Intro - 0:00
  Fast Rock Q=180
  N.C.(D#5)
 4/4
  Gtrs I, II
     PM   PM   PM   PM     PM   PM   PM  PM
   E E  E E  E E  E E    E E  E E  E E E E
|---------------------|--------------------|
|---------------------|--------------------|
|---------------------|--------------------|
|---------------------|--------------------|
|-15---14---12---10---|-14---12---10---9---|
|----0----0----0----0-|----0----0----0---0-|


     PM   PM  PM  PM     PM  PM  PM  PM
   E E  E E E E E E    E E E E E E E E
|-------------------|-------------------|
|-------------------|-------------------|
|-------------------|-------------------|
|-------------------|-------------------|
|-12---10---9---7---|-10---9---7---5----|
|----0----0---0---0-|----0---0---0---0--|


    PM  PM  PM  PM    PM  PM  PM  PM    PM  PM  PM  PM    PM  PM  PM  PM
  E E E E E E E E   E E E E E E E E   E E E E E E E E   E E E E E E E E
|-----------------|-----------------|-----------------|-----------------|
|-----------------|-----------------|-----------------|-----------------|
|-----------------|-----------------|-----------------|-----------------|
|-----------------|-----------------|-----------------|-----------------|
|-7---5---3---2---|-3---2---0-------|-3---2---0-------|-2---0-----------|
|---0---0---0---0-|---0---0---0-3-0-|---0---0---0-3-0-|---0---0-3-0-2-0-|


  D#5 C#5/D#5 C#5/D#D#5 C#5/D#5 C#5/D#D#5 C#5/D#5 C#5/D#D#5C#5D#5C#5D#5VII
    PM  PM  PM  PM    PM  PM  PM  PM    PM  PM  PM  PM
  E E E E E E E E   E E E E E E E E   E E E E E E E E   E  E  E  E  H
|-----------------|-----------------|-----------------|----------------|
|-----------------|-----------------|-----------------|----------------|
|-----------------|-----------------|-----------------|----------------|
|-2---0---2---0---|-2---0---2---0---|-2---0---2---0---|-9s=7--9s=7--9--|
|-2---0---2---0---|-2---0---2---0---|-2---0---2---0---|-7s=5--7s=5--7--|
|---0---0---0---0-|---0---0---0---0-|---0---0---0---0-|----------------|


    D#5
          PM  PM  PM    PM                   PM  PM  PM    PM
    E E E E E E E E   E E E E E E Q    E E E E E E E E   E E E E E E Q
||------------------|----------------|-----------------|-----------------|
||o-----------------|----------------|-----------------|-----------------|
||------5---4---2---|-0--------------|-----5---4---2---|-0---------------|
||--------2---2---2-|---2-4-5-4-0----|-------2---2---2-|---2-4-5-4-0-0---|
||o-2-2-------------|-------------2--|-2-2-------------|-----------------|
||--0-0-------------|----------------|-0-0-------------|-----------------|


                                     B5         G#5
        PM  PM  PM    PM             PM----|    PM----|
  E E E E E E E E   E E E E E E Q    S S S S Q  S S S S Q
|-----------------|----------------|-----------------------|
|-----------------|----------------|-----------------------|
|-----5---4---2---|-0--------------|---------5----------2--|
|-------2---2---2-|---2-4-5-4-0----|---------5----------2--|
|-2-2-------------|-------------2--|-3-3-3-3-3--0-0-0-0-0--|
|-0-0-------------|----------------|-----------------------|


  N.C.
  PM----------------------------|
  S S S S S S S S S S S S S S S S
|-----------------------------------||
|----------------------------------o||
|-----------------------------------||
|-----------------------------------||
|-2-2-2-2-0-0-0-0------------------o||
|-----------------3-3-3-3-2-2-2-2---||


    D#5
    PM----|      PM|       PM----|      PM|
    S S S S E Q  S S E E   S S S S E Q  S S E E
||-----------------------|----------------------|
||o----------------------|----------------------|
||-----------------------|----------------------|
||--2-2-2-2-2----2-2-2---|-2-2-2-2-2----2-2-2---|
||o-2-2-2-2-2----2-2-2---|-2-2-2-2-2----2-2-2---|
||--0-0-0-0-0----0-0-0---|-0-0-0-0-0----0-0-0---|


  PM----|      PM|      PM--------------------|
  S S S S E Q  S S Q    S S E S S E S S E S S E
|---------------------|----------------------------||
|---------------------|---------------------------o||
|---------------------|----------------------------||
|-2-2-2-2-2----2-2-2--|----------------------------||
|-2-2-2-2-2----2-2-2--|-2-2-2-0-0-0---------------o||
|-0-0-0-0-0----0-0-0--|-------------3-3-3-2-2-2----||


   Verse 1 & 2 - 0:48, 1:57
    $
    D#5
      PM--------------------------------|
    E E E E E E E E   E E E E E E S S S S
||------------------|---------------------|
||o-----------------|---------------------|
||------------------|---------------------|
||--2---------------|---------------------|
||o-2-2-2-2-2-2-2-2-|-2-2-2-2-2-2-2-2-2-2-|
||--0-0-0-0-0-0-0-0-|-0-0-0-0-0-0-0-0-0-0-|


    PM------------------------------------|
  E E E E E E E E   S S E S S E S S E S S E
|-----------------|--------------------------||
|-----------------|-------------------------o||
|-----------------|--------------------------||
|-2---------------|--------------------------||
|-2-2-2-2-2-2-2-2-|-2-2-2-0-0-0-------------o||
|-0-0-0-0-0-0-0-0-|-------------3-3-3-2-2-2--||


  F#5
                      PM----|                       PM----|
  W          +H.      S S S S   W          +H.      S S S S
|----------|------------------|----------|------------------|
|----------|------------------|----------|------------------|
|----------|------------------|----------|------------------|
|-5--------|-(5)------5-5-5-5-|-5--------|-(5)------5-5-5-5-|
|-5--------|-(5)------5-5-5-5-|-5--------|-(5)------5-5-5-5-|
|-3--------|-(3)------3-3-3-3-|-3--------|-(3)------3-3-3-3-|


  D#5
    PM--------------------------------|
  E E E E E E E E   E E E E E E S S S S
|-----------------|---------------------|
|-----------------|---------------------|
|-----------------|---------------------|
|-2---------------|---------------------|
|-2-2-2-2-2-2-2-2-|-2-2-2-2-2-2-2-2-2-2-|
|-0-0-0-0-0-0-0-0-|-0-0-0-0-0-0-0-0-0-0-|


    PM------------------------------------|
  E E E E E E E E   S S E S S E S S E S S E
|-----------------|--------------------------|
|-----------------|--------------------------|
|-----------------|--------------------------|
|-2---------------|--------------------------|
|-2-2-2-2-2-2-2-2-|-2-2-2-0-0-0--------------|
|-0-0-0-0-0-0-0-0-|-------------3-3-3-2-2-2--|


   Pre-Ch.1-3 -1:09,2:18,5:14
                                  1.
    $$
    A#5D#A#B5 G#5  A#5D#A#B5 C#5   G#5
       PM             PM                 PM  PM  PM    PM
    Q  E E Q  Q    Q  E E Q  E E   E E E E E E E E   E E E E E E E E
||---------------|---------------|-----------------|-------------------||
||o--------------|---------------|-----6---5---3---|-1----------------o||
||--4----4-5--2--|-4----4-5--7-7-|-------2---2---2-|---2-4-5-4-0-------||
||--4----4-5--2--|-4----4-5--7-7-|-----------------|-------------2-2---||
||o-2--2-2-3--0--|-2--2-2-3--5-5-|-0-0-------------|------------------o||
||-----0---------|----0----------|-----------------|-------------------||


  2.
  C#5
     PM------------|
  Q  E E E E E E   E E E E E E E E
|----------------|-----------------|
|----------------|-----------------|
|-7--------------|-----------------|
|-7--7-7-7-7-7-7-|-7-7-7-7-7-7-7-7-|
|-5--5-5-5-5-5-5-|-5-5-5-5-5-5-5-5-|
|----------------|-----------------|


   Chorus1-3 - 1:21,2:29,5:25
                                      1.
    D#5C#5D#5VII     F#/B5             C#/F#5           G#5F#5G#5F#5
                 PM                PM                   PM-|     PM|
    E  E  H    E E   E   E  H    E E   E   E  H    Q    E  E  Q  E E Q
||-----------------|-----------------|----------------|------------------||
||o----------------|-----------------|----------------|-----------------o||
||--9s=7S=9----9---|--------5----5---|----------------|------------------||
||--9s=7S=9----9-9-|-5--(5)-5----5-5-|--------5----5--|-------7------5---||
||o-7s=5S=7----7-7-|-2s==3--3----3-3-|-5--(5)-5----5--|-7--5--7--5-5-5--o||
||-----------------|-----------------|-2s==3--3----3--|-5--3--5--3-3-3---||


  2.
  B5C#5/G#  B5/FC#5/G#
  E E E E E E E E   E E E E E E E E
|-----------------|-----------------|
|-----------------|-----------------|
|-----------------|-----------------|
|-5-7-7-7---5---7-|-7-5-7-4-7-4-4-4-|
|-3-5-5-5---3---5-|-5-7-9-5-9-5-5-5-|
|-3-5-5-5---3---5-|-5---------------|
                    E E E E E E E E


    D#5C#5D#5VII     F#/B5             C#/F#5
                 PM                PM
    E  E  H    E E   E   E  H    E E   E   E  H    Q
||-----------------|-----------------|----------------|
||o----------------|-----------------|----------------|
||--9s=7S=9----9---|--------5----5---|----------------|
||--9s=7S=9----9-9-|-5--(5)-5----5-5-|--------5----5--|
||o-7s=5S=7----7-7-|-2s==3--3----3-3-|-5--(5)-5----5--|
||-----------------|-----------------|-2s==3--3----3--|


 1.                     2.
  G#5F#5G#5VA#5G#5A#5VII
  PM-|      PM-|         PM|     PM|
  E  E  Q   E  E  Q      E E E E E E E E
|---------------------||------------------|
|--------------------o||------------------|
|---------------------||------------------|
|-------7---------9---||------------------|
|-7--5--7---9--7--9--o||------------------|
|-5--3--5---7--5--7---||-5-3-5-5-3-2-3-3--|


                           To Dbl. Coda         To Coda
  G#5           A#5           B5            C#5open
       PM|           PM|           PM|           PM|
  H    E E Q    H    E E Q    H    E E Q    H    E E Q
|-------------|-------------|-------------|-------------|
|-------------|-------------|-------------|-3-----------|
|-2-----------|-4-----------|-5-----------|-2-----------|
|-2-----------|-4-----------|-5-----------|-0-----------|
|-0-----------|-2-----------|-3-----------|-------------|
|------3-2-3--|------3-2-3--|------3-2-3--|------3-2-3--|


  D#5
        PM  PM  PM    PM                   PM  PM  PM    PM
  E E E E E E E E   E E E E E E Q    E E E E E E E E   E E E E E E Q
|-----------------|----------------|-----------------|----------------|
|-----------------|----------------|-----------------|----------------|
|-----5---4---2---|-0--------------|-----5---4---2---|-0--------------|
|-------2---2---2-|---2-4-5-4-0----|-------2---2---2-|---2-4-5-4-0-0--|
|-2-2-------------|-------------2--|-2-2-------------|----------------|
|-0-0-------------|----------------|-0-0-------------|----------------|


                             D.S. al Coda
        PM  PM  PM    PM
  E E E E E E E E   E E E E E E Q    Wx2
|-----------------|----------------|---------|
|-----------------|----------------|---------|
|-----5---4---2---|-0--------------|---------|
|-------2---2---2-|---2-4-5-4-0----|---------|
|-2-2-------------|-------------2--|---------|
|-0-0-------------|----------------|---------|


   Break - 2:55
    &
    D#5
    Gtr I
      PM----------------------------|
    E E E E E E E E   E E E E S S S S Q
||------------------|---------------------||
||o-----------------|--------------------o||
||------------------|---------------------||
||--2---------------|---------------------||
||o-2-2-2-2-2-2-2-2-|-2-2-2-2-2-2-2-2-5--o||
||--0-0-0-0-0-0-0-0-|-0-0-0-0-0-0-0-0-3---||


                    Gtrs I, II
    PM------------------------------------|
  E E E E E E E E   S S E S S E S S E S S E
|-----------------|-------------------------|
|-----------------|-------------------------|
|-----------------|-------------------------|
|-2---------------|-------------------------|
|-2-2-2-2-2-2-2-2-|-2-2-2-0-0-0-------------|
|-0-0-0-0-0-0-0-0-|-------------3-3-3-2-2-2-|


    D#5
      PM----------------------------|
    E E E E E E E E   E E E E S S S S Q
||------------------|---------------------||
||o-----------------|--------------------o||
||------------------|---------------------||
||--2---------------|---------------------||
||o-2-2-2-2-2-2-2-2-|-2-2-2-2-2-2-2-2-5--o||
||--0-0-0-0-0-0-0-0-|-0-0-0-0-0-0-0-0-3---||


    PM------------------------------------|
  E E E E E E E E   S S E S S E S S E S S E
|-----------------|-------------------------|
|-----------------|-------------------------|
|-----------------|-------------------------|
|-2---------------|-------------------------|
|-2-2-2-2-2-2-2-2-|-2-2-2-0-0-0-------------|
|-0-0-0-0-0-0-0-0-|-------------3-3-3-2-2-2-|


   Bridge - 3:17
    C#5D#5
           PM      PM--------------------|
    E   E  E E +E  E E E   E E E E E E E E
||-----------------------|-----------------|
||o----------------------|-----------------|
||-----------------------|-----------------|
||--0h==2----2-(2)-------|-----------------|
||o-0h==2--2-2-(2)-------|-----------------|
||--0--(0)-0-0-(0)-0-0-0-|-0-0-0-0-0-0-0-0-|


  F#/B5
         PM      PM--------------------|
  E   E  E E +E  E E E   E E E E E E E E
|----------------------|------------------|
|----------------------|------------------|
|----------5-(5)-------|------------------|
|-5--(5)-5-5-(5)-------|------------------|
|-2s==3--3-3-(3)-3-3-3-|-3-3-3-3-3-3-3-3--|
|----------------------|------------------|


  C#/F#5
         PM      PM--------------------|
  E   E  E E +E  E E E   E E E E E E E E
|----------------------|-----------------|
|----------------------|-----------------|
|----------------------|-----------------|
|----------5-(5)-------|-----------------|
|-5--(5)-5-5-(5)-------|-----------------|
|-2s==3--3-3-(3)-3-3-3-|-3-3-3-3-3-3-3-3-|


    G#5V                A#5VII
      PM      PM--|       PM      PM--|
  E E E E +E  E E E   E E E E +E  E E E   6x
|-------------------|---------------------||
|-------------------|--------------------o||
|-------------------|---------------------||
|-------7-(7)-------|-------9-(9)---------||
|-5s7-7-7-(7)-------|-7s9-9-9-(9)--------o||
|-3s5-5-5-(5)-5-5-5-|-5s7-7-7-(7)-7-7-7---||


 Interlude - 4:21
  C#5D#5
  Gtr III
              ~~~
  E   E  E E +Q      Q        Q.        E    +Q       Q
|--------------------------|------------------------------|
|--------------------------|-12--------10---(10)-----12---|
|-7---9--9-9-(9)-----9-----|------------------------------|
|--------------------------|------------------------------|
|--------------------------|------------------------------|
|--------------------------|------------------------------|
|
| Gtrs I, II
|        PM      PM-------------------------------------|
| E   E  E E +E  S S E S S    E  S S E  S S   E  S S  E E
|--------------------------|------------------------------|
|--------------------------|------------------------------|
|--------------------------|------------------------------|
|-0h==2----2-(2)-----------|------------------------------|
|-0h==2--2-2-(2)-----------|------------------------------|
|-0--(0)-0-0-(0)-0-0-0-0-0-|--0--0-0-0--0-0---0--0-0--0-0-|


  F#/AB5
   ~~~
   H.                  Q        Q.          E    +Q       Q
|----------------------------|---------------------------------|
|----------------------------|-12b13-------12---(12)-----10----|
|-12------------------12-----|---------------------------------|
|----------------------------|---------------------------------|
|----------------------------|---------------------------------|
|----------------------------|---------------------------------|
|
|         PM      PM----------------------------------------|
|  E   E  E E +E  S S  E S S    E    S S E  S S   E  S S  E E
|----------------------------|---------------------------------|
|----------------------------|---------------------------------|
|-----------5-(5)------------|---------------------------------|
|--5--(5)-5-5-(5)------------|---------------------------------|
|--2s==3--3-3-(3)-3-3--3-3-3-|--3----3-3-3--3-3---3--3-3--3-0--|
|----------------------------|---------------------------------|


  C#/EF#5
   ~~~
   H.                  Q        Q.        E    +Q       Q
|----------------------------|------------------------------|
|----------------------------|------------------------------|
|-12------------------12-----|-----------12---(12)----------|
|----------------------------|-12----------------------12---|
|----------------------------|------------------------------|
|----------------------------|------------------------------|
|
|         PM      PM--------------------------------------|
|  E   E  E E +E  S S  E S S    E  S S E  S S   E  S S  E E
|----------------------------|------------------------------|
|----------------------------|------------------------------|
|----------------------------|------------------------------|
|-----------5-(5)------------|------------------------------|
|--5--(5)-5-5-(5)------------|------------------------------|
|--2s==3--3-3-(3)-3-3--3-3-3-|--3--3-3-3--3-3---3--3-3--3-3-|


    G#5V                        A#5VII
  Q.     E  +Q       Q        Q.     E  +Q       E  E
|--------------------------|-15-----14-(14)-----12-14---|
|-------------------10-----|----------------------------|
|-9-----12-(12)------------|----------------------------|
|--------------------------|----------------------------|
|--------------------------|----------------------------|
|--------------------------|----------------------------|
|
|     PM        PM-------|        PM        PM--------|
| E E E  E  +E  S S  E S S    E E E  E  +E  S S  E  S S
|--------------------------|----------------------------|
|--------------------------|----------------------------|
|--------------------------|----------------------------|
|--------7--(7)------------|---------9--(9)-------------|
|-5s7-7--7--(7)------------|--7s9-9--9--(9)-------------|
|-3s5-5--5--(5)-5-5--5-5-5-|--5s7-7--7--(7)-7-7--7--7-7-|


  C#5/D#5
  Gtr III
   ~~~
   H.                  Q        Q.        E    +Q       Q
|-12------------------12-----|-12--------12---(12)-----12---|
|----------------------------|------------------------------|
|----------------------------|------------------------------|
|----------------------------|------------------------------|
|----------------------------|------------------------------|
|----------------------------|------------------------------|
|
| Gtr IV
|  ~~~
|  H.                  Q        Q.        E    +Q       Q
|----------------------------|------------------------------|
|----------------------------|-12--------10---(10)-----12---|
|-12------------------12-----|------------------------------|
|----------------------------|------------------------------|
|----------------------------|------------------------------|
|----------------------------|------------------------------|
|
| Gtrs I, II
|         PM      PM--------------------------------------|
|  E   E  E E +E  S S  E S S    E  S S E  S S   E  S S  E E
|----------------------------|------------------------------|
|----------------------------|------------------------------|
|----------------------------|------------------------------|
|--0h==2----2-(2)------------|------------------------------|
|--0h==2--2-2-(2)------------|------------------------------|
|--0--(0)-0-0-(0)-0-0--0-0-0-|--0--0-0-0--0-0---0--0-0--0-0-|


  F#/AB5
   ~~~
   H.                  Q        Q.          E    +Q       Q
|----------------------------|---------------------------------|
|-13------------------13-----|-15b17-------15---(15)-----13----|
|----------------------------|---------------------------------|
|----------------------------|---------------------------------|
|----------------------------|---------------------------------|
|----------------------------|---------------------------------|
|
|  ~~~
|  H.                  Q        Q.          E    +Q       Q
|----------------------------|---------------------------------|
|----------------------------|-12b13-------12---(12)-----10----|
|-12------------------12-----|---------------------------------|
|----------------------------|---------------------------------|
|----------------------------|---------------------------------|
|----------------------------|---------------------------------|
|
|         PM      PM----------------------------------------|
|  E   E  E E +E  S S  E S S    E    S S E  S S   E  S S  E E
|----------------------------|---------------------------------|
|----------------------------|---------------------------------|
|-----------5-(5)------------|---------------------------------|
|--5--(5)-5-5-(5)------------|---------------------------------|
|--2s==3--3-3-(3)-3-3--3-3-3-|--3----3-3-3--3-3---3--3-3--3-0--|
|----------------------------|---------------------------------|


  C#/EF#5
  Gtr V
   W                            W
  Gtr III
   ~~~
   H.                  Q        Q.        E    +Q       Q
|----------------------------|------------------------------|
|-12------------------12-----|-----------12---(12)----------|
|----------------------------|-12----------------------12---|
|----------------------------|------------------------------|
|----------------------------|------------------------------|
|----------------------------|------------------------------|
|
| Gtr IV
|  ~~~
|  H.                  Q        Q.        E    +Q       Q
|----------------------------|------------------------------|
|----------------------------|------------------------------|
|-12------------------12-----|-----------12---(12)----------|
|----------------------------|-12----------------------12---|
|----------------------------|------------------------------|
|----------------------------|------------------------------|
|
| Gtrs I, II
|         PM      PM--------------------------------------|
|  E   E  E E +E  S S  E S S    E  S S E  S S   E  S S  E E
|----------------------------|------------------------------|
|----------------------------|------------------------------|
|----------------------------|------------------------------|
|-----------5-(5)------------|------------------------------|
|--5--(5)-5-5-(5)------------|------------------------------|
|--2s==3--3-3-(3)-3-3--3-3-3-|--3--3-3-3--3-3---3--3-3--3-3-|


     G#5V                        A#5VII
   W                           H          E  S S  S S  S S
                                             | |  | |  | |
                                             o /  / /  / /

   Q.     E  +Q       Q        Q.     E  +Q       E    E
|---------------------------|-19-----17-(17)-----15---17-----|
|--------12-(12)-----15-----|--------------------------------|
|-14------------------------|--------------------------------|
|---------------------------|--------------------------------|
|---------------------------|--------------------------------|
|---------------------------|--------------------------------|
|
|  Q.     E  +Q       Q        Q.     E  +Q       E    E
|---------------------------|-15-----14-(14)-----12---14-----|
|--------------------10-----|--------------------------------|
|--9-----12-(12)------------|--------------------------------|
|---------------------------|--------------------------------|
|---------------------------|--------------------------------|
|---------------------------|--------------------------------|
|
|      PM        PM-------|        PM        PM----------|
|  E E E  E  +E  S S  E S S    E E E  E  +E  S S  E    S S
|---------------------------|--------------------------------|
|---------------------------|--------------------------------|
|---------------------------|--------------------------------|
|---------7--(7)------------|---------9--(9)-----------------|
|--5s7-7--7--(7)------------|--7s9-9--9--(9)-----------------|
|--3s5-5--5--(5)-5-5--5-5-5-|--5s7-7--7--(7)-7-7--7----7-7---|


 Flamenco Interlude - 4:44
  D#m
  Gtr VI
   E  S S  S  S S S E S S   S   S S S
   |  | |  |  | | | | | |   |   | | |
   /  / /  /  / / / / / /   /   / / /

  Gtr V
   E  E   +Q.         S S   S   S S S
|--8--7---(7)---------8-8---8---8-8-8-|
|-------------------------------------|
|-------------------------------------|
|-------------------------------------|
|-------------------------------------|
|-------------------------------------|
|
| Gtr III
|  ~~~
|  H.                      +Q
|-15----------------------(15)\-------|
|-------------------------------------|
|-------------------------------------|
|-------------------------------------|
|-------------------------------------|
|-------------------------------------|
|
| Gtr IV
|  ~~~
|  H.                      +Q
|-12----------------------(12)\-------|
|-------------------------------------|
|-------------------------------------|
|-------------------------------------|
|-------------------------------------|
|-------------------------------------|


  E E  E  E E S S S S S S   E   E   E   E   E    E    E   E
  | |  |  | | | | | | | |   |   |   |   |   |    |    |   |
  / /  /  / / / / / / / /   /   /   /   /   /    /    /   /

  E E +Q.     S S S S S S   S S S S S S S S S S  S  S S S S S
|-8-7-(7)-----8-8-8-8-8-8-|-8-8-7-7-8-7-8-7---------------------|
|-------------------------|-----------------8-8-10-10-7-7-8-8---|
|-------------------------|-------------------------------------|
|-------------------------|-------------------------------------|
|-------------------------|-------------------------------------|
|-------------------------|-------------------------------------|
|
| W                         W
|-------------------------|-------------------------------------|
|-------------------------|-------------------------------------|
|-------------------------|-------------------------------------|
|-------------------------|-------------------------------------|
|-------------------------|-------------------------------------|
|-------------------------|-------------------------------------|
|
| W                         W
|-------------------------|-------------------------------------|
|-------------------------|-------------------------------------|
|-------------------------|-------------------------------------|
|-------------------------|-------------------------------------|
|-------------------------|-------------------------------------|
|-------------------------|-------------------------------------|


  Gtr VI
  E S S E E E S S S S S S   E S S  S  S S S E S S S S S S
  | | | | | | | | | | | |   | | |  |  | | | | | | | | | |
  / / / / / / / / / / / /   / / /  /  / / / / / / / / / /

  Gtr V
  H         E S S S S S S   E E   +Q.         S S S S S S
|-------------8-8-8-8-8-8-|-8-7---(7)---------8-8-8-8-8-8-|
|-------------------------|-------------------------------|
|-9-----------------------|-------------------------------|
|-------------------------|-------------------------------|
|-------------------------|-------------------------------|
|-------------------------|-------------------------------|


  E E  E  E E S S S S S S   E   E   E   E   E    E    E   E
  | |  |  | | | | | | | |   |   |   |   |   |    |    |   |
  / /  /  / / / / / / / /   /   /   /   /   /    /    /   /

  E E +Q.     S S S S S S   S S S S S S S S S S  S  S S S S S
|-8-7-(7)-----8-8-8-8-8-8-|-8-8-7-7-8-7-8-7-------------------|
|-------------------------|-----------------8-8-10-10-7-7-8-8-|
|-------------------------|-----------------------------------|
|-------------------------|-----------------------------------|
|-------------------------|-----------------------------------|
|-------------------------|-----------------------------------|


    E S S E E E S S S S S S   E S S  S  S S S E   S S S S S S
    | | | | | | | | | | | |   | | |  |  | | | |   | | | | | |
    / / / / / / / / / / / /   / / /  /  / / / /   / / / / / /

    H         E S S S S S S   E E   +Q.           S S S S S S
||--------------8-8-8-8-8-8-|-8-7---(7)-----------8-8-8-8-8-8-|
||o-------------------------|---------------------------------|
||--9-----------------------|---------------------------------|
||--------------------------|---------------------------------|
||o-------------------------|---------------------------------|
||--------------------------|---------------------------------|
|
|   Gtrs I, II
|                                    PM-------|
|   W                         Q      S  S S S S S E   Q
||--------------------------|---------------------------------|
||o-------------------------|---------------------------------|
||--------------------------|---------------------------------|
||--------------------------|---------------------------------|
||o-------------------------|--------2--2-2-2-2---------------|
||--------------------------|--------0--0-0-0-0---------------|


  E E  E    E   E   S S S S S S   E   E   E   E   E    E    E   E
  | |  |    |   |   | | | | | |   |   |   |   |   |    |    |   |
  / /  /    /   /   / / / / / /   /   /   /   /   /    /    /   /

  E E +Q.           S S S S S S   S S S S S S S S S S  S  S S S S S
|-8-7-(7)-----------8-8-8-8-8-8-|-8-8-7-7-8-7-8-7--------------------||
|-------------------------------|-----------------8-8-10-10-7-7-8-8-o||
|-------------------------------|------------------------------------||
|-------------------------------|------------------------------------||
|-------------------------------|-----------------------------------o||
|-------------------------------|------------------------------------||
|
|      PM-------|
| Q    S  S S S S S E   Q         W
|-------------------------------|------------------------------------||
|-------------------------------|-----------------------------------o||
|-------------------------------|------------------------------------||
|-------------------------------|------------------------------------||
|------2--2-2-2-2---------------|-----------------------------------o||
|------0--0-0-0-0---------------|------------------------------------||


  E  S S E E E S S  S  S S S   E S S  S  S S S E S S S S S S
  |  | | | | | | |  |  | | |   | | |  |  | | | | | | | | | |
  /  / / / / / / /  /  / / /   / / /  /  / / / / / / / / / /

  H          E S S  S  S S S   E E   +Q.         S S S S S S
|--------------8-8--8--8-8-8-|-8-7---(7)---------8-8-8-8-8-8-|
|----------------------------|-------------------------------|
|-9--------------------------|-------------------------------|
|----------------------------|-------------------------------|
|----------------------------|-------------------------------|
|----------------------------|-------------------------------|
|
|                              PM----------|         PM-------
| H.                Q          E S S  E    E   E E   S S S S
|----------------------------|-------------------------------|
|----------------------------|-------------------------------|
|----------------------------|-------------------------------|
|----------------------------|-----------------2-------------|
|----------------------------|-2-2-2--2----2---2-----2-2-2-2-|
|------------------12\-------|-0-0-0--0----0---0-----0-0-0-0-|


  E E    E  E E S S S S S S   E   E   E   E   E    E    E   E
  | |    |  | | | | | | | |   |   |   |   |   |    |    |   |
  / /    /  / / / / / / / /   /   /   /   /   /    /    /   /

  E E   +Q.     S S S S S S   S S S S S S S S S S  S  S S S S S
|-8-7---(7)-----8-8-8-8-8-8-|-8-8-7-7-8-7-8-7----------------------|
|---------------------------|-----------------8-8-10-10-7-7-8-8----|
|---------------------------|--------------------------------------|
|---------------------------|--------------------------------------|
|---------------------------|--------------------------------------|
|---------------------------|--------------------------------------|
|
|-----------|       PM--------------------|             PM----|
| E S S  E  E E E   S S S S   E   S S E   E   E    E    S S S S
|---------------------------|--------------------------------------|
|---------------------------|--------------------------------------|
|---------------------------|--------------------------------------|
|-------------2-------------|-----------------2--------------------|
|-2-2-2--2--2-2-----2-2-2-2-|-2---2-2-2---2---2---------2-2-2-2----|
|-0-0-0--0--0-0-----0-0-0-0-|-0---0-0-0---0---0---------0-0-0-0----|


  E S S E E E   S S S S S S   E S S  S  S S S E   S S S S S S
  | | | | | |   | | | | | |   | | |  |  | | | |   | | | | | |
  / / / / / /   / / / / / /   / / /  /  / / / /   / / / / / /

  H         E   S S S S S S   E E   +Q.           S S S S S S
|---------------8-8-8-8-8-8-|-8-7---(7)-----------8-8-8-8-8-8-|
|---------------------------|---------------------------------|
|-9-------------------------|---------------------------------|
|---------------------------|---------------------------------|
|---------------------------|---------------------------------|
|---------------------------|---------------------------------|
|
| PM------------|   PM----------------------------|   PM-------
| E S S E E S S S S S S S S   E S S  E    E   S S S S S S S S
|---------------------------|---------------------------------|
|---------------------------|---------------------------------|
|---------------------------|---------------------------------|
|---------------------------|---------------------------------|
|-2-2-2-2-2-2-2-2---2-2-2-2-|-2-2-2--2----2---2-2-2---2-2-2-2-|
|-0-0-0-0-0-0-0-0---0-0-0-0-|-0-0-0--0----0---0-0-0---0-0-0-0-|


  E E    E  E E   S S S S S S
  | |    |  | |   | | | | | |
  / /    /  / /   / / / / / /

  E E   +Q.       S S S S S S
|-8-7---(7)-------8-8-8-8-8-8---|
|-------------------------------|
|-------------------------------|
|-------------------------------|
|-------------------------------|
|-------------------------------|
|
|-----------------|   PM----|
| E S S  E  E S S S S S S S S
|-------------------------------|
|-------------------------------|
|-------------------------------|
|-------------------------------|
|-2-2-2--2--2-2-2-2---2-2-2-2---|
|-0-0-0--0--0-0-0-0---0-0-0-0---|


                                           D.S.S. al Dbl. Coda
  E   E   E   E   E    E    E   E     E S S E E H
  |   |   |   |   |    |    |   |     | | | | | |
  /   /   /   /   /    /    /   /     / / / / / /

  S S S S S S S S S S  S  S S S S S   H         H
|-8-8-7-7-8-7-8-7-------------------|---------------------------|
|-----------------8-8-10-10-7-7-8-8-|---------------------------|
|-----------------------------------|-9-------------------------|
|-----------------------------------|---------------------------|
|-----------------------------------|---------------------------|
|-----------------------------------|---------------------------|
|
| PM------------------|     PM----------------------|   PM--|
| E   S S E   E   S S  S  S S S S S   E S S E E S S S S S S S S
|-----------------------------------|---------------------------|
|-----------------------------------|---------------------------|
|-----------------------------------|---------------------------|
|-----------------------------------|---------------------------|
|-2---2-2-2---2---2-2--2----2-2-2-2-|-2-2-2-2-2-2-2-2---2-2-2---|
|-0---0-0-0---0---0-0--0----0-0-0-0-|-0-0-0-0-0-0-0-0---0-0-0---|


 Outro - 5:51
  &&
  C#5open            D#5
  Gtr III
  H..          S S   E S S E S S E S S E S S   E S S E S S E S S E S S
|------------------|-------------------------|--------------------------|
|--------------0h3h|=5-0h3h5-0h3h5-0h3h5-0h3h|=5-0h3h5-0h3h5-0h3h5-0h5h=|
|------------------|-------------------------|--------------------------|
|------------------|-------------------------|--------------------------|
|------------------|-------------------------|--------------------------|
|------------------|-------------------------|--------------------------|
|
| Gtr I
|        PM|           PM--------------------------------------------|
| H      E E Q       E S S E S S E S S E S S   E S S E S S E S S E S S
|------------------|-------------------------|--------------------------|
|-3----------------|-------------------------|--------------------------|
|-2----------------|-------------------------|--------------------------|
|-0----------------|-2-----------------------|--------------------------|
|------------------|-2-----2-----2-----2-----|-2-----2-----2-----2------|
|--------3-2-3-----|-0-0-0-0-0-0-0-0-0-0-0-0-|-0-0-0-0-0-0-0-0-0-0-0-0--|


  B5
  E S S E S S E S S E S S   E S S E S S E S S E S S
|-------------------------|-------------------------|
|-8-0h5h8-0h5h8-0h5h8-0h5h|=8-0h5h8-0h5h8-0h5h8-0h1h|
|-------------------------|-------------------------|
|-------------------------|-------------------------|
|-------------------------|-------------------------|
|-------------------------|-------------------------|
|
|   PM--------------------------------------------|
| E S S E S S E S S E S S   E S S E S S E S S E S S
|-------------------------|-------------------------|
|-------------------------|-------------------------|
|-5-----------------------|-------------------------|
|-5-----5-----5-----5-----|-5-----5-----5-----5-----|
|-3-3-3-3-3-3-3-3-3-3-3-3-|-3-3-3-3-3-3-3-3-3-3-3-3-|
|-------------------------|-------------------------|


  F#5
  E S S E S S E S S E S S   E S S E S S E S S E S S
|-------------------------|--------------------------|
|-3-0h1h3-0h1h3-0h1h3-0h1h|=3-0h1h3-0h1h3-0h1h3-0h3--|
|-------------------------|--------------------------|
|-------------------------|--------------------------|
|-------------------------|--------------------------|
|-------------------------|--------------------------|
|
|   PM--------------------------------------------|
| E S S E S S E S S E S S   E S S E S S E S S E S S
|-------------------------|--------------------------|
|-------------------------|--------------------------|
|-------------------------|--------------------------|
|-5-----------------------|--------------------------|
|-5-----5-----5-----5-----|-5-----5-----5-----5------|
|-3-3-3-3-3-3-3-3-3-3-3-3-|-3-3-3-3-3-3-3-3-3-3-3-3--|


  G#5                       A#5
                                                Gtrs III, IV
  E S S E S S E S S E S S   E S S E S S E S S E S S
|-------------------------|---------------------0h5h=|
|-5-0h3h5-0h3h5-0h3h5-0h5h|=8-0h5h8-0h4h7-0h4h7-0h3h=|
|-------------------------|--------------------------|
|-------------------------|--------------------------|
|-------------------------|--------------------------|
|-------------------------|--------------------------|
|
|   PM------------------|     PM------------------|
| E S S E S S E S S E S S   E S S E S S E S S E S S
|-------------------------|--------------------------|
|-------------------------|--------------------------|
|-2-----------------------|-4------------------------|
|-2-----2-----2-----2-----|-4-----4-----4-----4------|
|-0-0-0-0-0-0-0-0-0-0-0-0-|-2-2-2-2-2-2-2-2-2-2-2-2--|
|-------------------------|--------------------------|


    D#5
    E S S E S S E S S E S S   E S S E S S E S S E S S
||--7-0h5h7-0h5h7-0h5h7-0h5h|=7-0h5h7-0h5h7-0h5h7-0h5h|
||o-5-0h3h5-0h3h5-0h3h5-0h3h|=5-0h3h5-0h3h5-0h3h5-0h5h|
||--------------------------|-------------------------|
||--------------------------|-------------------------|
||o-------------------------|-------------------------|
||--------------------------|-------------------------|
|
|     PM--------------------------------------------|
|   E S S E S S E S S E S S   E S S E S S E S S E S S
||--------------------------|-------------------------|
||o-------------------------|-------------------------|
||--------------------------|-------------------------|
||--2-----------------------|-------------------------|
||o-2-----2-----2-----2-----|-2-----2-----2-----2-----|
||--0-0-0-0-0-0-0-0-0-0-0-0-|-0-0-0-0-0-0-0-0-0-0-0-0-|


  B5
  E S S E S S E S S E S S   E S S E S S E S S E S  S
|-8-0h5h8-0h5h8-0h5h8-0h5h|=8-0h5h8-0h5h8-0h5h8-0h14h=|
|-8-0h5h8-0h5h8-0h5h8-0h5h|=8-0h5h8-0h5h8-0h5h8-0h=1h=|
|-------------------------|---------------------------|
|-------------------------|---------------------------|
|-------------------------|---------------------------|
|-------------------------|---------------------------|
|
|   PM--------------------------------------------|
| E S S E S S E S S E S S   E S S E S S E S S E S  S
|-------------------------|---------------------------|
|-------------------------|---------------------------|
|-5-----------------------|---------------------------|
|-5-----5-----5-----5-----|-5-----5-----5-----5-------|
|-3-3-3-3-3-3-3-3-3-3-3-3-|-3-3-3-3-3-3-3-3-3-3-3--3--|
|-------------------------|---------------------------|


  F#5
   E S  S  E S  S  E S  S  E S  S    E S  S  E S  S  E S  S  E S S
|-15-0h14h15-0h14h15-0h14h15-0h14h|=15-0h14h15-0h14h15-0h14h15-0h3h|
|--3-0h=1h=3-0h=1h=3-0h=1h=3-0h=1h|==3-0h=1h=3-0h=1h=3-0h=1h=3-0h3h|
|---------------------------------|--------------------------------|
|---------------------------------|--------------------------------|
|---------------------------------|--------------------------------|
|---------------------------------|--------------------------------|
|
|    PM----------------------------------------------------------|
|  E S  S  E S  S  E S  S  E S  S    E S  S  E S  S  E S  S  E S S
|---------------------------------|--------------------------------|
|---------------------------------|--------------------------------|
|---------------------------------|--------------------------------|
|--5------------------------------|--------------------------------|
|--5-------5-------5-------5------|--5-------5-------5-------5-----|
|--3-3--3--3-3--3--3-3--3--3-3--3-|--3-3--3--3-3--3--3-3--3--3-3-3-|


  G#5                       A#5
  E S S E S S E S S E S S   E S S E S S E S S E S S   3x
|-5-0h3h5-0h3h5-0h3h5-0h5h|=7-0h5h7-0h3h5-0h3h5-0h5---||
|-5-0h3h5-0h3h5-0h3h5-0h5h|=8-0h5h8-0h4h7-0h4h7-0h3--o||
|-------------------------|---------------------------||
|-------------------------|---------------------------||
|-------------------------|--------------------------o||
|-------------------------|---------------------------||
|
|   PM------------------|     PM------------------|
| E S S E S S E S S E S S   E S S E S S E S S E S S   3x
|-------------------------|---------------------------||
|-------------------------|--------------------------o||
|-2-----------------------|-4-------------------------||
|-2-----2-----2-----2-----|-4-----4-----4-----4-------||
|-0-0-0-0-0-0-0-0-0-0-0-0-|-2-2-2-2-2-2-2-2-2-2-2-2--o||
|-------------------------|---------------------------||


  D#5
  Gtr II
               ~~~
  E E   E E   +Q      Q        Q.        E    +Q       Q
|---------------------------|--------------------------------|
|---------------------------|-12--------10---(10)-----12-----|
|-7-9---9-9---(9)-----9-----|--------------------------------|
|---------------------------|--------------------------------|
|---------------------------|--------------------------------|
|---------------------------|--------------------------------|
|
| Gtrs III, IV
| E S S E S S  E  S S E S S    E  S S E  S S   E  S S  E S S
|-7-0h5h7-0h5h=7--0h5h7-0h5h|==7--0h5h7--0h5h==7--0h5h=7-0h5h|
|-5-0h3h5-0h3h=5--0h3h5-0h3h|==5--0h3h5--0h3h==5--0h3h=5-0h5h|
|---------------------------|--------------------------------|
|---------------------------|--------------------------------|
|---------------------------|--------------------------------|
|---------------------------|--------------------------------|
|
| Gtr I
|   PM-----------------------------------------------------|
| E S S E S S  E  S S E S S    E  S S E  S S   E  S S  E S S
|---------------------------|--------------------------------|
|---------------------------|--------------------------------|
|---------------------------|--------------------------------|
|-2-------------------------|--------------------------------|
|-2-----2------2------2-----|--2------2--------2-------2-----|
|-0-0-0-0-0-0--0--0-0-0-0-0-|--0--0-0-0--0-0---0--0-0--0-0-0-|


  B5
   ~~~
   H.                  Q        Q.          E    +Q       Q
|----------------------------|------------------------------------|
|----------------------------|-12b13-------12---(12)-----10-------|
|-12------------------12-----|------------------------------------|
|----------------------------|------------------------------------|
|----------------------------|------------------------------------|
|----------------------------|------------------------------------|
|
|  E  S S E S S E S S  E S S    E    S S E  S S   E  S S  E S  S
|--8--0h5h8-0h5h8-0h5h=8-0h5h|==8----0h5h8--0h5h==8--0h5h=8-0h14--|
|--8--0h5h8-0h5h8-0h5h=8-0h5h|==8----0h5h8--0h5h==8--0h5h=8-0h=1--|
|----------------------------|------------------------------------|
|----------------------------|------------------------------------|
|----------------------------|------------------------------------|
|----------------------------|------------------------------------|
|
|     PM------------------------------------------------------|
|  E  S S E S S E S S  E S S    E    S S E  S S   E  S S  E S  S
|----------------------------|------------------------------------|
|----------------------------|------------------------------------|
|--5-------------------------|------------------------------------|
|--5------5-----5------5-----|--5--------5--------5-------5-------|
|--3--3-3-3-3-3-3-3-3--3-3-3-|--3----3-3-3--3-3---3--3-3--3-3--3--|
|----------------------------|------------------------------------|


  F#5
   ~~~
   H.                       Q         Q.          E     +Q        Q
|----------------------------------|------------------------------------|
|----------------------------------|------------------------------------|
|-12-----------------------12------|-------------12----(12)-------------|
|----------------------------------|-12--------------------------12-----|
|----------------------------------|------------------------------------|
|----------------------------------|------------------------------------|
|
|  E  S  S  E S  S  E S  S  E S  S    E  S  S  E  S  S   E  S  S  E S S
|-15--0h14h15-0h14h15-0h14h15-0h14h|=15--0h14h15--0h14h=15--0h14h15-0h3h|
|--3--0h=1h=3-0h=1h=3-0h=1h=3-0h=1h|==3--0h=1h=3--0h=1h==3--0h=1h=3-0h3h|
|----------------------------------|------------------------------------|
|----------------------------------|------------------------------------|
|----------------------------------|------------------------------------|
|----------------------------------|------------------------------------|
|
|     PM--------------------------------------------------------------|
|  E  S  S  E S  S  E S  S  E S  S    E  S  S  E  S  S   E  S  S  E S S
|----------------------------------|------------------------------------|
|----------------------------------|------------------------------------|
|----------------------------------|------------------------------------|
|--5-------------------------------|------------------------------------|
|--5--------5-------5-------5------|--5--------5---------5--------5-----|
|--3--3--3--3-3--3--3-3--3--3-3--3-|--3--3--3--3--3--3---3--3--3--3-3-3-|


  G#5                             A#5
  Q.        E    +Q       Q        Q.        E    +Q       E  E
|-------------------------------|-15--------14---(14)-----12-14----|
|------------------------10-----|----------------------------------|
|-9--------12---(12)------------|----------------------------------|
|-------------------------------|----------------------------------|
|-------------------------------|----------------------------------|
|-------------------------------|----------------------------------|
|
| E  S S E  S S   E  S S  E S S    E  S S E  S S   E  S S  E  S S
|-5--0h3h5--0h3h==5--0h3h=5-0h5h|==7--0h5h7--0h3h==5--0h3h=5--0h5--|
|-5--0h3h5--0h3h==5--0h3h=5-0h5h|==8--0h5h8--0h4h==7--0h4h=7--0h3--|
|-------------------------------|----------------------------------|
|-------------------------------|----------------------------------|
|-------------------------------|----------------------------------|
|-------------------------------|----------------------------------|
|
|    PM-----------------------|       PM------------------------|
| E  S S E  S S   E  S S  E S S    E  S S E  S S   E  S S  E  S S
|-------------------------------|----------------------------------|
|-------------------------------|----------------------------------|
|-2-----------------------------|--4-------------------------------|
|-2------2--------2-------2-----|--4------4--------4-------4-------|
|-0--0-0-0--0-0---0--0-0--0-0-0-|--2--2-2-2--2-2---2--2-2--2--2-2--|
|-------------------------------|----------------------------------|


  D#5
  Gtr II
   ~~~
   H.                  Q        Q.        E    +Q       Q
|-12------------------12-----|-12--------12---(12)-----12-----|
|----------------------------|-12--------10---(10)-----12-----|
|-12------------------12-----|--------------------------------|
|----------------------------|--------------------------------|
|----------------------------|--------------------------------|
|----------------------------|--------------------------------|
|
| Gtrs III, IV
|  E  S S E S S E S S  E S S    E  S S E  S S   E  S S  E S S
|--7--0h5h7-0h5h7-0h5h=7-0h5h|==7--0h5h7--0h5h==7--0h5h=7-0h5h|
|--5--0h3h5-0h3h5-0h3h=5-0h3h|==5--0h3h5--0h3h==5--0h3h=5-0h5h|
|----------------------------|--------------------------------|
|----------------------------|--------------------------------|
|----------------------------|--------------------------------|
|----------------------------|--------------------------------|
|
| Gtr I
|     PM----------------------------------------------------|
|  E  S S E S S E S S  E S S    E  S S E  S S   E  S S  E S S
|----------------------------|--------------------------------|
|----------------------------|--------------------------------|
|----------------------------|--------------------------------|
|--2-------------------------|--------------------------------|
|--2------2-----2------2-----|--2------2--------2-------2-----|
|--0--0-0-0-0-0-0-0-0--0-0-0-|--0--0-0-0--0-0---0--0-0--0-0-0-|


  B5
   ~~~
   H.                  Q        Q.          E    +Q       Q
|----------------------------|-10b12-------10---(10)------8-------|
|-13------------------13-----|-12b13-------12---(12)-----10-------|
|-12------------------12-----|------------------------------------|
|----------------------------|------------------------------------|
|----------------------------|------------------------------------|
|----------------------------|------------------------------------|
|
|  E  S S E S S E S S  E S S    E    S S E  S S   E  S S  E S  S
|--8--0h5h8-0h5h8-0h5h=8-0h5h|==8----0h5h8--0h5h==8--0h5h=8-0h14--|
|--8--0h5h8-0h5h8-0h5h=8-0h5h|==8----0h5h8--0h5h==8--0h5h=8-0h=1--|
|----------------------------|------------------------------------|
|----------------------------|------------------------------------|
|----------------------------|------------------------------------|
|----------------------------|------------------------------------|
|
|     PM------------------------------------------------------|
|  E  S S E S S E S S  E S S    E    S S E  S S   E  S S  E S  S
|----------------------------|------------------------------------|
|----------------------------|------------------------------------|
|--5-------------------------|------------------------------------|
|--5------5-----5------5-----|--5--------5--------5-------5-------|
|--3--3-3-3-3-3-3-3-3--3-3-3-|--3----3-3-3--3-3---3--3-3--3-3--3--|
|----------------------------|------------------------------------|


  F#5
   ~~~
   H.                       Q         Q.          E     +Q        Q
|----------------------------------|------------------------------------|
|-12-----------------------12------|-------------12----(12)-------------|
|-12-----------------------12------|-12----------12----(12)------12-----|
|----------------------------------|-12--------------------------12-----|
|----------------------------------|------------------------------------|
|----------------------------------|------------------------------------|
|
|  E  S  S  E S  S  E S  S  E S  S    E  S  S  E  S  S   E  S  S  E S S
|-15--0h14h15-0h14h15-0h14h15-0h14h|=15--0h14h15--0h14h=15--0h14h15-0h3h|
|--3--0h=1h=3-0h=1h=3-0h=1h=3-0h=1h|==3--0h=1h=3--0h=1h==3--0h=1h=3-0h3h|
|----------------------------------|------------------------------------|
|----------------------------------|------------------------------------|
|----------------------------------|------------------------------------|
|----------------------------------|------------------------------------|
|
|     PM--------------------------------------------------------------|
|  E  S  S  E S  S  E S  S  E S  S    E  S  S  E  S  S   E  S  S  E S S
|----------------------------------|------------------------------------|
|----------------------------------|------------------------------------|
|----------------------------------|------------------------------------|
|--5-------------------------------|------------------------------------|
|--5--------5-------5-------5------|--5--------5---------5--------5-----|
|--3--3--3--3-3--3--3-3--3--3-3--3-|--3--3--3--3--3--3---3--3--3--3-3-3-|


  G#5                              A#5
   Q.        E    +Q       Q        Q.        E    +Q       E  E
|------------7----(7)-----10-----|-19--------17---(17)-----15-17----|
|-10----------------------10-----|-20--------19---(19)-----17-19----|
|--9--------12---(12)------------|----------------------------------|
|--------------------------------|----------------------------------|
|--------------------------------|----------------------------------|
|--------------------------------|----------------------------------|
|
|  E  S S E  S S   E  S S  E S S    E  S S E  S S   E  S S  E  S S
|--5--0h3h5--0h3h==5--0h3h=5-0h5h|==7--0h5h7--0h3h==5--0h3h=5--0h5--|
|--5--0h3h5--0h3h==5--0h3h=5-0h5h|==8--0h5h8--0h4h==7--0h4h=7--0h3--|
|--------------------------------|----------------------------------|
|--------------------------------|----------------------------------|
|--------------------------------|----------------------------------|
|--------------------------------|----------------------------------|
|
|     PM-----------------------|       PM------------------------|
|  E  S S E  S S   E  S S  E S S    E  S S E  S S   E  S S  E  S S
|--------------------------------|----------------------------------|
|--------------------------------|----------------------------------|
|--2-----------------------------|--4-------------------------------|
|--2------2--------2-------2-----|--4------4--------4-------4-------|
|--0--0-0-0--0-0---0--0-0--0-0-0-|--2--2-2-2--2-2---2--2-2--2--2-2--|
|--------------------------------|----------------------------------|


  D#5                                                  F#/A#
  Gtr II
   ~~~
   H.                  +Q         W
|-15------------------(15)\-----|--------------------------|
|-17------------------(17)\-----|--------------------------|
|-------------------------------|--------------------------|
|-------------------------------|--------------------------|
|-------------------------------|--------------------------|
|-------------------------------|--------------------------|
|
| Gtrs III, IV
|  E  S S E S S E S S   E   S S   E  S S E S S E S S E S S
|--7--0h5h7-0h5h7-0h5h==7---0h5h|=7--0h5h7-0h5h7-0h5h7-0h5h|
|--5--0h3h5-0h3h5-0h3h==5---0h3h|=5--0h3h5-0h3h5-0h3h5-0h5h|
|-------------------------------|--------------------------|
|-------------------------------|--------------------------|
|-------------------------------|--------------------------|
|-------------------------------|--------------------------|
|
| Gtr I
|  E  E   Q     H                 H.                 E E
|-------------------------------|--------------------------|
|-------------------------------|--------------------------|
|-------------------------------|--------------------------|
|--2----------------------------|----------------------5---|
|--2----------------------------|----------------------2---|
|--0----------------------------|--------------------------|


  B5                                             C#/E#
  W                         W
|-------------------------|----------------------------|
|-------------------------|----------------------------|
|-------------------------|----------------------------|
|-------------------------|----------------------------|
|-------------------------|----------------------------|
|-------------------------|----------------------------|
|
| E S S E S S E S S E S S   E  S S E S S E S S E S  S
|-8-0h5h8-0h5h8-0h5h8-0h5h|=8--0h5h8-0h5h8-0h5h8-0h14--|
|-8-0h5h8-0h5h8-0h5h8-0h5h|=8--0h5h8-0h5h8-0h5h8-0h=1--|
|-------------------------|----------------------------|
|-------------------------|----------------------------|
|-------------------------|----------------------------|
|-------------------------|----------------------------|
|
| E E   Q     H             H.                 E E
|-------------------------|----------------------------|
|-------------------------|----------------------------|
|-5-----------------------|----------------------------|
|-5-----------------------|----------------------------|
|-3-----------------------|----------------------5-----|
|-------------------------|----------------------2-----|


  F#5
  Gtrs III, IV
   E S  S  E S  S  E S  S  E S  S    E  S  S  E S  S  E S  S  E S S
|-15-0h14h15-0h14h15-0h14h15-0h14h|=15--0h14h15-0h14h15-0h14h15-0h3h|
|--3-0h=1h=3-0h=1h=3-0h=1h=3-0h=1h|==3--0h=1h=3-0h=1h=3-0h=1h=3-0h3h|
|---------------------------------|---------------------------------|
|---------------------------------|---------------------------------|
|---------------------------------|---------------------------------|
|---------------------------------|---------------------------------|
|
| Gtr I
|  E E     Q       H                 H.                       E E
|---------------------------------|---------------------------------|
|---------------------------------|---------------------------------|
|---------------------------------|---------------------------------|
|--5------------------------------|-----------------------------5---|
|--5------------------------------|-----------------------------5---|
|--3------------------------------|-----------------------------3---|


  G#5                        A#5
  E S S E S S E  S S E S S   E S S E S S  E  S S E S S
|-5-0h3h5-0h3h5--0h3h5-0h5h|=7-0h5h7-0h3h=5--0h3h5-0h5--|
|-5-0h3h5-0h3h5--0h3h5-0h5h|=8-0h5h8-0h4h=7--0h4h7-0h3--|
|--------------------------|----------------------------|
|--------------------------|----------------------------|
|--------------------------|----------------------------|
|--------------------------|----------------------------|
|
| E E   Q     Q.       E     E E   Q      H
|--------------------------|----------------------------|
|--------------------------|----------------------------|
|-2--------------------2---|-4--------------------------|
|-2--------------------2---|-4--------------------------|
|-0--------------------0---|-2--------------------------|
|--------------------------|-------------12\------------|


  D#5                                              F#/A#
  E S S E S S E S S E S S    E   S S E S S E S S E S S
|-7-0h5h7-0h5h7-0h5h7-0h5h|==7---0h5h7-0h5h7-0h5h7-0h5h|
|-5-0h3h5-0h3h5-0h3h5-0h3h|==5---0h3h5-0h3h5-0h3h5-0h5h|
|-------------------------|----------------------------|
|-------------------------|----------------------------|
|-------------------------|----------------------------|
|-------------------------|----------------------------|
|
| W                         +H..                   E
|-------------------------|----------------------------|
|-------------------------|----------------------------|
|-------------------------|----------------------------|
|-2-----------------------|-(2)--------------------5---|
|-2-----------------------|-(2)--------------------2---|
|-0-----------------------|-(0)------------------------|


  B5                                               C#/E#
  E S S E S S E S S E S S    E   S S E S S E S S E S  S
|-8-0h5h8-0h5h8-0h5h8-0h5h|==8---0h5h8-0h5h8-0h5h8-0h14--|
|-8-0h5h8-0h5h8-0h5h8-0h5h|==8---0h5h8-0h5h8-0h5h8-0h=1--|
|-------------------------|------------------------------|
|-------------------------|------------------------------|
|-------------------------|------------------------------|
|-------------------------|------------------------------|
|
| W                         +H..                   E
|-------------------------|------------------------------|
|-------------------------|------------------------------|
|-5-----------------------|-(5)--------------------------|
|-5-----------------------|-(5)--------------------------|
|-3-----------------------|-(3)--------------------5-----|
|-------------------------|------------------------2-----|


  F#5
   E S  S  E S  S  E S  S  E S  S    E   S  S  E S  S  E S  S  E S S
|-15-0h14h15-0h14h15-0h14h15-0h14h|=15---0h14h15-0h14h15-0h14h15-0h3h|
|--3-0h=1h=3-0h=1h=3-0h=1h=3-0h=1h|==3---0h=1h=3-0h=1h=3-0h=1h=3-0h3h|
|---------------------------------|----------------------------------|
|---------------------------------|----------------------------------|
|---------------------------------|----------------------------------|
|---------------------------------|----------------------------------|
|
|  W                                +H..                         E
|---------------------------------|----------------------------------|
|---------------------------------|----------------------------------|
|---------------------------------|----------------------------------|
|--5------------------------------|-(5)--------------------------5---|
|--5------------------------------|-(5)--------------------------5---|
|--3------------------------------|-(3)--------------------------3---|


  G#5                         A#5
  E   S S E S S E S S E S S   E S S E S S E S S E S S
|-5---0h3h5-0h3h5-0h3h5-0h5h|=7-0h5h7-0h3h5-0h3h5-0h5--|
|-5---0h3h5-0h3h5-0h3h5-0h5h|=8-0h5h8-0h4h7-0h4h7-0h3--|
|---------------------------|--------------------------|
|---------------------------|--------------------------|
|---------------------------|--------------------------|
|---------------------------|--------------------------|
|
| H..                   E     W
|---------------------------|--------------------------|
|---------------------------|--------------------------|
|-2---------------------2---|-4------------------------|
|-2---------------------2---|-4------------------------|
|-0---------------------0---|-2------------------------|
|---------------------------|--------------------------|


 4/4
   ~~~~~~~~~~~~~~~~~~~~~~~~~~~~~~~~~~~~~~~~~
   W                     W
|--7------------------|-10-----------------|
|--8------------------|-10-----------------|
|---------------------|--------------------|
|---------------------|--------------------|
|---------------------|--------------------|
|---------------------|--------------------|
|
|    PM   PM   PM   PM     PM   PM   PM  PM
|  E E  E E  E E  E E    E E  E E  E E E E
|---------------------|--------------------|
|---------------------|--------------------|
|---------------------|--------------------|
|---------------------|--------------------|
|-15---14---12---10---|-14---12---10---9---|
|----0----0----0----0-|----0----0----0---0-|


 ~~~~~~~~~~~~~~~~~~~~~~~~
   W                   W
|-12----------------|-14----------------|
|-12----------------|-15----------------|
|-------------------|-------------------|
|-------------------|-------------------|
|-------------------|-------------------|
|-------------------|-------------------|
|
|    PM   PM  PM  PM     PM  PM  PM  PM
|  E E  E E E E E E    E E E E E E E E
|-------------------|-------------------|
|-------------------|-------------------|
|-------------------|-------------------|
|-------------------|-------------------|
|-12---10---9---7---|-10---9---7---5----|
|----0----0---0---0-|----0---0---0---0--|


  N.C.(D#5)
  Gtr III
   ~~~~~~~~~~~~~~~~~~~~~~~~~~~~~~~~~~~~~~~~~~~~~~~~~~~~~~~~~~~
   W                  W                  W                  W
|-15---------------|-17---------------|-19---------------|-22---------------|
|------------------|------------------|------------------|------------------|
|------------------|------------------|------------------|------------------|
|------------------|------------------|------------------|------------------|
|------------------|------------------|------------------|------------------|
|------------------|------------------|------------------|------------------|
|
| Gtr IV
|  ~~~~~~~~~~~~~~~~~~~~~~~~~~~~~~~~~~~~~~~~~~~~~~~~~~~~~~~~~~~
|  W                  W                  W                  W
|------------------|------------------|-15---------------|-19---------------|
|-17---------------|-19---------------|------------------|------------------|
|------------------|------------------|------------------|------------------|
|------------------|------------------|------------------|------------------|
|------------------|------------------|------------------|------------------|
|------------------|------------------|------------------|------------------|
|
| Gtr I
|    PM  PM  PM  PM     PM  PM  PM  PM     PM  PM  PM  PM     PM  PM  PM  PM
|  E E E E E E E E    E E E E E E E E    E E E E E E E E    E E E E E E E E
|------------------|------------------|------------------|------------------|
|------------------|------------------|------------------|------------------|
|------------------|------------------|------------------|------------------|
|------------------|------------------|------------------|------------------|
|--7---5---3---2---|--3---2---0-------|--2---0-----------|--0---------------|
|----0---0---0---0-|----0---0---0-3-0-|----0---0-3-0-2-0-|----0-3-0-2-0-1-0-|


  D#5     C#5/DD#5     C#5/D# D#5     C#5/DD#5     C#5/D#
  Gtr IV
   H            H              H            H
|-22b24--------22b24--------|-22b24--------22b24--------|
|---------------------------|---------------------------|
|---------------------------|---------------------------|
|---------------------------|---------------------------|
|---------------------------|---------------------------|
|---------------------------|---------------------------|
|
|  E    E  E E  E    E  E E    E    E  E E  E    E  E E
|-19------17---19------17---|-19------17---19------17---|
|-17------15---17------15---|-17------15---17------15---|
|---------------------------|---------------------------|
|---------------------------|---------------------------|
|---------------------------|---------------------------|
|---------------------------|---------------------------|
|
| Gtr I
|       PM   PM      PM   PM        PM   PM      PM   PM
|  E    E  E E  E    E  E E    E    E  E E  E    E  E E
|---------------------------|---------------------------|
|---------------------------|---------------------------|
|---------------------------|---------------------------|
|--2-------0----2-------0---|--2-------0----2-------0---|
|--2-------0----2-------0---|--2-------0----2-------0---|
|-------0----0-------0----0-|-------0----0-------0----0-|


  D#5     C#5/DD#5     C#5/D# D#5VII C#5 D#5VC#5 D#5VII
   H            H              H                  H        W
|-22b24--------22b24--------|-22b24--------------------|------------*|
|---------------------------|--------------------------|------------*|
|---------------------------|--------------------------|------------*|
|---------------------------|--------------------------|------------*|
|---------------------------|--------------------------|------------*|
|---------------------------|--------------------------|------------*|
|
|                                                 ~~
|  E    E  E E  E    E  E E    E      E   E   E   H       +H      H
|-19------17---19------17---|-19s====17--19s=17--19----|-(19)\------*|
|-17------15---17------15---|-17s====15--17s=15--17----|-(17)\------*|
|---------------------------|--------------------------|------------*|
|---------------------------|--------------------------|------------*|
|---------------------------|--------------------------|------------*|
|---------------------------|--------------------------|------------*|
|
|       PM   PM      PM   PM
|  E    E  E E  E    E  E E    E      E   E   E   H       +H      H
|---------------------------|--------------------------|------------*|
|---------------------------|--------------------------|------------*|
|---------------------------|--------------------------|------------*|
|--2-------0----2-------0---|--9s=====7---9s==7---9----|--(9)\------*|
|--2-------0----2-------0---|--7s=====5---7s==5---7----|--(7)\------*|
|-------0----0-------0----0-|--------------------------|------------*|


Duration Legend
---------------
W - whole; H - half; Q - quarter; E - 8th; S - 16th; T - 32nd; X - 64th; a - acciaccatura
+ - note tied to previous; . - note dotted; .. - note double dotted
Uncapitalized letters represent notes that are staccato (1/2 duration)
Irregular groupings are notated above the duration line
Duration letters will always appear directly above the note/fret number it represents the
duration for.  Duration letters with no fret number below them represent rests.  Multi-
bar rests are notated in the form Wxn, where n is the number of bars to rest for.  Low
melody durations appear below the staff

Tablature Legend
----------------
 h   - hammer-on
 p   - pull-off
 b   - bend
 pb  - pre-bend
 r   - bend release (if no number after the r, then release immediately)
 /\  - slide into or out of (from/to "nowhere")
 s   - legato slide
 S   - shift slide
  - natural harmonic
[n]  - artificial harmonic
n(n) - tapped harmonic
 ~   - vibrato
 tr  - trill
 T   - tap
 TP  - trem. picking
 PM  - palm muting
\n/  - tremolo bar dip; n = amount to dip
 \n  - tremolo bar down
 n/  - tremolo bar up
/n\  - tremolo bar inverted dip
 =   - hold bend; also acts as connecting device for hammers/pulls
 <>  - volume swell (louder/softer)
 x   - on rhythm slash represents muted slash
 o   - on rhythm slash represents single note slash

Misc Legend
-----------
 |  - bar
||  - double bar
||o - repeat start
o|| - repeat end
*|  - double bar (ending)
 :  - bar (freetime)
 $  - Segno
 &  - Coda
Tempo markers -  = BPM(8/16=s8/s16), where s8 = swing 8ths, s16 = swing 16ths


***************************************************************************************
* Generated using Power Tab Editor by Brad Larsen - http://powertab.guitarnetwork.org *
***************************************************************************************
comments
We did not receive enough feedback on this tab! Please rate:
print report bad tab
1 2 3 4 5
1 comment total.
0 reply
guitr4God wrote on May 11 2010, 06:32 pm

awesome tab, awesome song...anyone want to volunteer to do a cover? lol! its confusing to learn, but i think that's just the song, not the tab...

I want to post or [tab]
guest
You may want to rate the tab now too:
select rating
Please do not post tabs as comments. Select "correction" instead!