Oops, an error
Loading. Please wait.

Lowlife Tab

ver1
ver1

Whole song

Interactive

More versions @911Tabs.com
40,374 views 87 this week
3 commentsread comments
1 2 3 4 5
excellent!
x 3
add to favorites launch autoscroll
font size
0
reset
Autoscroll
+/-
esc
set tempo
stop
Contributor
Difficulty
Tuning
intermediate
C# G# C# F# A# D#
WARNING: You are trying to view
                                    content from Ultimate-Guitar.com
                                    in an unauthorized application,
                                    which is prohibited.

                                    Please use an official Ultimate
                                    Guitar Tabs application for iPhone,
                                    iPad or Android to access legitimate
                                    chords, guitar, bass, and drum tabs
                                    from Ultimate-Guitar.com database.

                                    Type "ultimate guitar tabs" in Apple
                                    App Store's or Android Market's
                                    search to find the application.
Lowlife
Theory of A Deadman
The Truth Is... (2011)

Words & Music by Tyler Connolly, Dean Back, and Dave Brenner.

GTR I - Drop C# Tuning Electric "Tyler Connolly" (d#,A#,F#,C#,G#,C#)
GTR II - Drop C# Tuning Electric "Dave Brenner" (d#,A#,F#,C#,G#,C#)
GTR III - Drop C# Tuning Acoustic "Dave Brenner" (d#,A#,F#,C#,G#,C#)

Intro

   GTR I,II
d#|-------------------|-------------------|-------------------|-------------------|
A#|-------------------|-------------------|-------------------|-------------------|
F#|-------------------|-------------------|-------------------|-------------------|
C#|-------------------|-------------------|-------------------|-------------------|
G#|-------------------|-------------------|-------------------|-------------------|
C#|-------------------|-------------------|-------------------|-------------------|

   GTR I,III
d#|--0-----0--0-----0-----------0-----0-|--0-----0----------------------------|
A#|--5-----5--5-----5-----------5-----5-|--5-----5----------------------------|
F#|--6-----6--6-----6--x-----x--6-----6-|--6-----6--x-----x--x-----x--x-----x-|
C#|--7-----7--7-----7--x-----x--7-----7-|--7-----7--x-----x--x-----x--x-----x-|
G#|--0-----0--0-----0--x-----x--0-----0-|--0-----0--x-----x--x-----x--x-----x-|
C#|-------------------------------------|-------------------------------------|

   GTR I,III
d#|--0-----0--0-----0-----------0-----0-|--0-----0----------------------------|
A#|--5-----5--5-----5-----------5-----5-|--5-----5----------------------------|
F#|--6-----6--6-----6--x-----x--6-----6-|--6-----6--x-----x--x-----x--x-----x-|
C#|--7-----7--7-----7--x-----x--7-----7-|--7-----7--x-----x--x-----x--x-----x-|
G#|--0-----0--0-----0--x-----x--0-----0-|--0-----0--x-----x--x-----x--x-----x-|
C#|-------------------------------------|-------------------------------------|

   GTR I,III
d#|--0-----0--0-----0-----------0-----0-|--0-----0----------------------------|
A#|--5-----5--5-----5-----------5-----5-|--5-----5----------------------------|
F#|--6-----6--6-----6--x-----x--6-----6-|--6-----6--x-----x--x-----x--x-----x-|
C#|--7-----7--7-----7--x-----x--7-----7-|--7-----7--x-----x--x-----x--x-----x-|
G#|--0-----0--0-----0--x-----x--0-----0-|--0-----0--x-----x--x-----x--x-----x-|
C#|-------------------------------------|-------------------------------------|
  |
  |GTR II
d#|------------/15----------------------|-------------------------------------|
A#|-------------------------------------|-------------------------------------|
F#|-------------------------------------|-------------------------------------|
C#|-------------------------------------|-------------------------------------|
G#|-------------------------------------|-------------------------------------|
C#|-------------------------------------|-------------------------------------|

   GTR I,III
d#|--0-----0--0-----0-----------0-----0-|--0-----0--0-----0--0-----0----------|
A#|--5-----5--5-----5-----------5-----5-|--5-----5--5-----5--5-----5----------|
F#|--6-----6--6-----6--x-----x--6-----6-|--6-----6--6-----6--6-----6----------|
C#|--7-----7--7-----7--x-----x--7-----7-|--7-----7--7-----7--7-----7----------|
G#|--0-----0--0-----0--x-----x--0-----0-|--0-----0--0-----0--0-----0----------|
C#|-------------------------------------|-------------------------------------|
  |
  |GTR II
d#|-------------------------------------|-------------------------------------|
A#|------------/15----------------------|-------------------------------------|
F#|-------------------------------------|-------------------------------------|
C#|-------------------------------------|-------------------------------------|
G#|-------------------------------------|-------------------------------------|
C#|-------------------------------------|-------------------------------------|

Main Riff

   GTR I,II
d#|-------------------------------------|-------------------------------------|
A#|-------------------------------------|-------------------------------------|
F#|-------------------------------------|-------------------------------------|
C#|--7--------7--------7-----7--7-----7-|--5--------5--------5-----5--5-----5-|
G#|--7--------7--------7-----7--7-----7-|--5--------5--------5-----5--5-----5-|
C#|--7--------7--------7-----7--7-----7-|--5--------5--------5-----5--5-----5-|

   GTR I
d#|-------------------------------------|-------------------------------------|
A#|-------------------------------------|-------------------------------------|
F#|-------------------------------------|-------------------------------------|
C#|--0--------0--------0-----0--0-----0-|--7--------7--------7----------------|
G#|--0--------0--------0-----0--0-----0-|--7--------7--------7---/12----------|
C#|--0--------0--------0-----0--0-----0-|--7--------7--------7----------------|
  |
  |GTR II
d#|-------------------------------------|-------------------------------------|
A#|-------------------------------------|-------------------------------------|
F#|-------------------------------------|-------------------------------------|
C#|--0--------0--------0-----0--0-----0-|--7--------7--------7-----7--7-----7-|
G#|--0--------0--------0-----0--0-----0-|--7--------7--------7-----7--7-----7-|
C#|--0--------0--------0-----0--0-----0-|--7--------7--------7-----7--7-----7-|

   GTR I
d#|-------------------------------------|-------------------------------------|
A#|-------------------------------------|-------------------------------------|
F#|--9--------9--------9----11-------11-|-12----11-12----11-12----11-------12-|
C#|--x--------x--------x-----x--------x-|--x-----x--x-----x--x-----x--------x-|
G#|--7--------7--------7-----9--------9-|-10-----9-10-----9-10-----9-------10-|
C#|-------------------------------------|-------------------------------------|
  |
  |GTR II
d#|-------------------------------------|-------------------------------------|
A#|-------------------------------------|-------------------------------------|
F#|-------------------------------------|-------------------------------------|
C#|--7--------7--------7-----7--7-----7-|--5--------5--------5-----5--5-----5-|
G#|--7--------7--------7-----7--7-----7-|--5--------5--------5-----5--5-----5-|
C#|--7--------7--------7-----7--7-----7-|--5--------5--------5-----5--5-----5-|

   GTR I
d#|-------------------------------------|-------------------------------------|
A#|-------------------------------------|-------------------------------------|
F#|-14----12-14----12-14----17-------12-|-14----12-14----12-14----------------|
C#|--x-----x--x-----x--x-----x--------x-|--x-----x--x-----x--x----------------|
G#|-12----10-12----10-12----15-------10-|-12----10-12----10-12----------------|
C#|-------------------------------------|-------------------------------------|
  |
  |GTR II
d#|-------------------------------------|-------------------------------------|
A#|-------------------------------------|-------------------------------------|
F#|-------------------------------------|-------------------------------------|
C#|--0--------0--------0-----0--0-----0-|--7--------7--------7-----7--7-----7-|
G#|--0--------0--------0-----0--0-----0-|--7--------7--------7-----7--7-----7-|
C#|--0--------0--------0-----0--0-----0-|--7--------7--------7-----7--7-----7-|

Verse

   GTR II
d#|-------------------------------------|-------------------------------------|
A#|-------------------------------------|-------------------------------------|
F#|-------------------------------------|-------------------------------------|
C#|-------------------------------------|-------------------------------------|
G#|--7-----7--7-----7--7-----7--7-----7-|--5-----5--5-----5--5-----5--5-----5-|
C#|--7-----7--7-----7--7-----7--7-----7-|--5-----5--5-----5--5-----5--5-----5-|
     .     .  .     .  .     .  .     .    .     .  .     .  .     .  .     .

   GTR II
d#|-------------------------------------|-------------------------------------|
A#|-------------------------------------|-------------------------------------|
F#|-------------------------------------|-------------------------------------|
C#|-------------------------------------|-------------------------------------|
G#|--0-----0--0-----0--0-----0--0-----0-|--7-----7--7-----7--7-----7--7-----7-|
C#|--0-----0--0-----0--0-----0--0-----0-|--7-----7--7-----7--7-----7--7-----7-|
     .     .  .     .  .     .  .     .    .     .  .     .  .     .  .     .

   GTR II
d#|-------------------------------------|-------------------------------------|
A#|-------------------------------------|-------------------------------------|
F#|-------------------------------------|-------------------------------------|
C#|-------------------------------------|-------------------------------------|
G#|--7-----7--7-----7--7-----7--7-----7-|--5-----5--5-----5--5-----5--5-----5-|
C#|--7-----7--7-----7--7-----7--7-----7-|--5-----5--5-----5--5-----5--5-----5-|
     .     .  .     .  .     .  .     .    .     .  .     .  .     .  .     .

   GTR I
d#|-------------------------------------|-------------------------------------|
A#|-------------------------------------|-------------------------------------|
F#|-------------------------------------|-------------------------------------|
C#|-------------------------------------|-----------------------------------7-|
G#|-------------------------------------|-----------------------------------7-|
C#|-------------------------------------|-----------------------------------7-|
  |
  |GTR II
d#|-------------------------------------|-------------------------------------|
A#|-------------------------------------|-------------------------------------|
F#|-------------------------------------|-------------------------------------|
C#|-------------------------------------|-------------------------------------|
G#|--0-----0--0-----0--0-----0--0-----0-|--7-----7--7-----7--7-----7--7-----7-|
C#|--0-----0--0-----0--0-----0--0-----0-|--7-----7--7-----7--7-----7--7-----7-|
     .     .  .     .  .     .  .     .    .     .  .     .  .     .  .     .

   GTR I
d#|-------------------------------------|-------------------------------------|
A#|-------------------------------------|-------------------------------------|
F#|-------------------------------------|-------------------------------------|
C#|--7-----7--------------------------7-|--5-----5--------------------------5-|
G#|--7-----7--------------------------7-|--5-----5--------------------------5-|
C#|--7-----7--------------------------7-|--5-----5--------------------------5-|
  |
  |GTR II
d#|-------------------------------------|-------------------------------------|
A#|-------------------------------------|-------------------------------------|
F#|-------------------------------------|-------------------------------------|
C#|-------------------------------------|-------------------------------------|
G#|--7-----7--7-----7--7-----7--7-----7-|--5-----5--5-----5--5-----5--5-----5-|
C#|--7-----7--7-----7--7-----7--7-----7-|--5-----5--5-----5--5-----5--5-----5-|
     .     .  .     .  .     .  .     .    .     .  .     .  .     .  .     .

   GTR I
d#|-------------------------------------|-------------------------------------|
A#|-------------------------------------|-------------------------------------|
F#|-------------------------------------|-------------------------------------|
C#|--0-----0--------------------------0-|--7-----7--------------------------7-|
G#|--0-----0--------------------------0-|--7-----7--------------------------7-|
C#|--0-----0--------------------------0-|--7-----7--------------------------7-|
  |
  |GTR II
d#|-------------------------------------|-------------------------------------|
A#|-------------------------------------|-------------------------------------|
F#|-------------------------------------|-------------------------------------|
C#|-------------------------------------|-------------------------------------|
G#|--0-----0--0-----0--0-----0--0-----0-|--7-----7--7-----7--7-----7--7-----7-|
C#|--0-----0--0-----0--0-----0--0-----0-|--7-----7--7-----7--7-----7--7-----7-|
     .     .  .     .  .     .  .     .    .     .  .     .  .     .  .     .

   GTR I
d#|-------------------------------------|-------------------------------------|
A#|-------------------------------------|-------------------------------------|
F#|-------------------------------------|-------------------------------------|
C#|--7-----7--------------------------7-|-10----10-------------------------10-|
G#|--7-----7--------------------------7-|-10----10-------------------------10-|
C#|--7-----7--------------------------7-|-10----10-------------------------10-|
  |
  |GTR II
d#|-------------------------------------|-------------------------------------|
A#|-------------------------------------|-------------------------------------|
F#|-------------------------------------|-------------------------------------|
C#|-------------------------------------|-------------------------------------|
G#|--7-----7--7-----7--7-----7--7-----7-|-10----10-10----10-10----10-10----10-|
C#|--7-----7--7-----7--7-----7--7-----7-|-10----10-10----10-10----10-10----10-|
     .     .  .     .  .     .  .     .    .     .  .     .  .     .  .     .

   GTR I,II
d#|-------------------------------------|-------------------------------------|
A#|-------------------------------------|-------------------------------------|
F#|-------------------------------------|-------------------------------------|
C#|--0-----0--0-----0--0-----0--0-----0-|-------------------------------------|
G#|--0-----0--0-----0--0-----0--0-----0-|-------------------------------------|
C#|--0-----0--0-----0--0-----0--0-----0-|-(9)(8)(7)(6)(5)(4)(3)---------------|

Chorus

   GTR I
d#|-------------------------------------|-------------------------------------|
A#|-------------------------------------|-------------------------------------|
F#|-------------------------------------|-------------------------------------|
C#|--7--------7--------7-----7--7-----7-|--5--------5--------5-----5--5-----5-|
G#|--7--------7--------7-----7--7-----7-|--5--------5--------5-----5--5-----5-|
C#|--7--------7--------7-----7--7-----7-|--5--------5--------5-----5--5-----5-|
  |
  |GTR II
d#|--------------------------5----------|--------------------------5----------|
A#|--------------------8----------------|--------------------8----------------|
F#|-------------------------------------|-------------------------------------|
C#|-------------------------------------|-------------------------------------|
G#|-------------------------------------|-------------------------------------|
C#|-------------------------------------|-------------------------------------|

   GTR I
d#|-------------------------------------|-------------------------------------|
A#|-------------------------------------|-------------------------------------|
F#|-------------------------------------|-------------------------------------|
C#|--0--------0--------0-----0--0-----0-|--7--------7--------7-----7--7-----7-|
G#|--0--------0--------0-----0--0-----0-|--7--------7--------7-----7--7-----7-|
C#|--0--------0--------0-----0--0-----0-|--7--------7--------7-----7--7-----7-|
  |
  |GTR II
d#|--------------------------5----------|--------------------------5----------|
A#|--------------------8----------------|--------------------8----------------|
F#|-------------------------------------|-------------------------------------|
C#|-------------------------------------|-------------------------------------|
G#|-------------------------------------|-------------------------------------|
C#|-------------------------------------|-------------------------------------|

   GTR I
d#|-------------------------------------|-------------------------------------|
A#|-------------------------------------|-------------------------------------|
F#|-------------------------------------|-------------------------------------|
C#|--7--------7--------7-----7--7-----7-|--5--------5--------5-----5--5-----5-|
G#|--7--------7--------7-----7--7-----7-|--5--------5--------5-----5--5-----5-|
C#|--7--------7--------7-----7--7-----7-|--5--------5--------5-----5--5-----5-|
  |
  |GTR II
d#|--------------------------5----------|--------------------------5----------|
A#|--------------------8----------------|--------------------8----------------|
F#|-------------------------------------|-------------------------------------|
C#|-------------------------------------|-------------------------------------|
G#|-------------------------------------|-------------------------------------|
C#|-------------------------------------|-------------------------------------|

   GTR I
d#|-------------------------------------|-------------------------------------|
A#|-------------------------------------|-------------------------------------|
F#|-------------------------------------|-------------------------------------|
C#|--0--------0--------0-----0--0-----0-|--7--------7--------7-----7--7-----7-|
G#|--0--------0--------0-----0--0-----0-|--7--------7--------7-----7--7-----7-|
C#|--0--------0--------0-----0--0-----0-|--7--------7--------7-----7--7-----7-|
  |
  |GTR II
d#|--------------------------5----------|--------------------------5----------|
A#|--------------------8----------------|--------------------8----------------|
F#|-------------------------------------|-------------------------------------|
C#|-------------------------------------|-------------------------------------|
G#|-------------------------------------|-------------------------------------|
C#|-------------------------------------|-------------------------------------|

Post Chorus

   GTR I,III
d#|-------------------------------------|-------------------------------------|
A#|--7-----7--7-----7-----------7-----7-|--7-----7----------------------------|
F#|--5-----5--5-----5---x----x--5-----5-|--5-----5----------------------------|
C#|--7-----7--7-----7---x----x--7-----7-|--7-----7----------10-------10-------|
G#|---------------------x----x----------|-------------------10-------10-------|
C#|-------------------------------------|-------------------10-------10-------|
  |
  |GTR II
d#|-------------------------------------|-------------------------------------|
A#|-------------------------------------|-------------------------------------|
F#|--7-----7--7-----7-----------7-----7-|--7-----7----------------------------|
C#|--7-----7--7-----7---x----x--7-----7-|--7-----7----------10-------10-------|
G#|--5-----5--5-----5---x----x--5-----5-|--5-----5----------10-------10-------|
C#|---------------------x----x----------|-------------------10-------10-------|

Verse 2

   GTR II
d#|-------------------------------------|-------------------------------------|
A#|-------------------------------------|-------------------------------------|
F#|-------------------------------------|-------------------------------------|
C#|-------------------------------------|-------------------------------------|
G#|--7-----7--7-----7--7-----7--7-----7-|--5-----5--5-----5--5-----5--5-----5-|
C#|--7-----7--7-----7--7-----7--7-----7-|--5-----5--5-----5--5-----5--5-----5-|
     .     .  .     .  .     .  .     .    .     .  .     .  .     .  .     .

   GTR I
d#|-------------------------------------|-------------------------------------|
A#|-------------------------------------|-------------------------------------|
F#|-------------------------------------|-------------------------------------|
C#|-------------------------------------|-----------------------------------7-|
G#|-------------------------------------|-----------------------------------7-|
C#|-------------------------------------|-----------------------------------7-|
  |
  |GTR II
d#|-------------------------------------|-------------------------------------|
A#|-------------------------------------|-------------------------------------|
F#|-------------------------------------|-------------------------------------|
C#|-------------------------------------|-------------------------------------|
G#|--0-----0--0-----0--0-----0--0-----0-|--7-----7--7-----7--7-----7--7-----7-|
C#|--0-----0--0-----0--0-----0--0-----0-|--7-----7--7-----7--7-----7--7-----7-|
     .     .  .     .  .     .  .     .    .     .  .     .  .     .  .     .

   GTR I
d#|-------------------------------------|-------------------------------------|
A#|-------------------------------------|-------------------------------------|
F#|-------------------------------------|-------------------------------------|
C#|--7-----7--------------------------7-|-10----10-------------------------10-|
G#|--7-----7--------------------------7-|-10----10-------------------------10-|
C#|--7-----7--------------------------7-|-10----10-------------------------10-|
  |
  |GTR II
d#|-------------------------------------|-------------------------------------|
A#|-------------------------------------|-------------------------------------|
F#|-------------------------------------|-------------------------------------|
C#|-------------------------------------|-------------------------------------|
G#|--7-----7--7-----7--7-----7--7-----7-|-10----10-10----10-10----10-10----10-|
C#|--7-----7--7-----7--7-----7--7-----7-|-10----10-10----10-10----10-10----10-|
     .     .  .     .  .     .  .     .    .     .  .     .  .     .  .     .

   GTR I,II
d#|-------------------------------------|-------------------------------------|
A#|-------------------------------------|-------------------------------------|
F#|-------------------------------------|-------------------------------------|
C#|--0-----0--0-----0--0-----0--0-----0-|-------------------------------------|
G#|--0-----0--0-----0--0-----0--0-----0-|-------------------------------------|
C#|--0-----0--0-----0--0-----0--0-----0-|-(9)(8)(7)(6)(5)(4)(3)---------------|

Chorus

Interlude

   GTR I,III
d#|--0-----0--0-----0-----------0-----0-|--0-----0----------------------------|
A#|--5-----5--5-----5-----------5-----5-|--5-----5-----------8-----8--8-----8-|
F#|--6-----6--6-----6--x-----x--6-----6-|--6-----6--x-----x--7-----7--7-----7-|
C#|--7-----7--7-----7--x-----x--7-----7-|--7-----7--x-----x--5-----5--5-----5-|
G#|--0-----0--0-----0--x-----x--0-----0-|--0-----0--x-----x-------------------|
C#|-------------------------------------|-------------------------------------|
  |
  |GTR II
d#|--0-----0--0-----0-----------0-----0-|--0-----0----------------------------|
A#|--5-----5--5-----5-----------5-----5-|--5-----5----------------------------|
F#|--6-----6--6-----6--x-----x--6-----6-|--6-----6--x-----x-------------------|
C#|--7-----7--7-----7--x-----x--7-----7-|--7-----7--x-----x-------------------|
G#|--0-----0--0-----0--x-----x--0-----0-|--0-----0--x-----x-------------------|
C#|-------------------------------------|-------------------------------------|

   GTR I,III
d#|--0-----0--0-----0-----------0-----0-|--0-----0----------------------------|
A#|--5-----5--5-----5-----------5-----5-|--5-----5-----------8-----8--8-----8-|
F#|--6-----6--6-----6--x-----x--6-----6-|--6-----6--x-----x--7-----7--7-----7-|
C#|--7-----7--7-----7--x-----x--7-----7-|--7-----7--x-----x--5-----5--5-----5-|
G#|--0-----0--0-----0--x-----x--0-----0-|--0-----0--x-----x-------------------|
C#|-------------------------------------|-------------------------------------|
  |
  |GTR II
d#|--0-----0--0-----0-----------0-----0-|--0-----0----------------------------|
A#|--5-----5--5-----5-----------5-----5-|--5-----5----------------------------|
F#|--6-----6--6-----6--x-----x--6-----6-|--6-----6--x-----x-------------------|
C#|--7-----7--7-----7--x-----x--7-----7-|--7-----7--x-----x-------------------|
G#|--0-----0--0-----0--x-----x--0-----0-|--0-----0--x-----x-------------------|
C#|-------------------------------------|-------------------------------------|

   GTR I,III
d#|--0-----0--0-----0-----------0-----0-|--0-----0----------------------------|
A#|--5-----5--5-----5-----------5-----5-|--5-----5-----------8-----8--8-----8-|
F#|--6-----6--6-----6--x-----x--6-----6-|--6-----6--x-----x--7-----7--7-----7-|
C#|--7-----7--7-----7--x-----x--7-----7-|--7-----7--x-----x--5-----5--5-----5-|
G#|--0-----0--0-----0--x-----x--0-----0-|--0-----0--x-----x-------------------|
C#|-------------------------------------|-------------------------------------|
  |
  |GTR II
d#|--0-----0--0-----0-----------0-----0-|--0-----0----------------------------|
A#|--5-----5--5-----5-----------5-----5-|--5-----5----------------------------|
F#|--6-----6--6-----6--x-----x--6-----6-|--6-----6--x-----x-------------------|
C#|--7-----7--7-----7--x-----x--7-----7-|--7-----7--x-----x-------------------|
G#|--0-----0--0-----0--x-----x--0-----0-|--0-----0--x-----x-------------------|
C#|-------------------------------------|-------------------------------------|

   GTR I,III
d#|--0-----0--0-----0-----------0-----0-|--0-----0----------------------------|
A#|--5-----5--5-----5-----------5-----5-|--5-----5-----------8----------------|
F#|--6-----6--6-----6--x-----x--6-----6-|--6-----6--x-----x--7----------------|
C#|--7-----7--7-----7--x-----x--7-----7-|--7-----7--x-----x--5----------------|
G#|--0-----0--0-----0--x-----x--0-----0-|--0-----0--x-----x------/12\---------|
C#|-------------------------------------|-------------------------------------|
  |
  |GTR II
d#|--0-----0--0-----0-----------0-----0-|--0-----0--0-----0--0-----0--0-----0-|
A#|--5-----5--5-----5-----------5-----5-|--5-----5--5-----5--5-----5--5-----5-|
F#|--6-----6--6-----6--x-----x--6-----6-|--6-----6--6-----6--6-----6--6-----6-|
C#|--7-----7--7-----7--x-----x--7-----7-|--7-----7--7-----7--7-----7--7-----7-|
G#|--0-----0--0-----0--x-----x--0-----0-|--0-----0--0-----0--0-----0--0-----0-|
C#|-------------------------------------|-------------------------------------|

Guitar Solo

   GTR I
d#|-------------------------------------|-------------------------------------|
A#|-------------------------------------|-------------------------------------|
F#|-------------------------------------|-------------------------------------|
C#|-14----11-14-------11----------------|-14----11-14----14-16----------------|
G#|-------------------------------------|-------------------------------------|
C#|-------------------------------------|-------------------------------------|
  |
  |GTR II
d#|-------------------------------------|-------------------------------------|
A#|-------------------------------------|-------------------------------------|
F#|-------------------------------------|-------------------------------------|
C#|--7--------7--------7-----7--7-----7-|--5--------5--------5-----5--5-----5-|
G#|--7--------7--------7-----7--7-----7-|--5--------5--------5-----5--5-----5-|
C#|--7--------7--------7-----7--7-----7-|--5--------5--------5-----5--5-----5-|

   GTR I
d#|-------------------------------------|-------------------------------------|
A#|-------------------------------------|-------------------------------------|
F#|-------------------------------------|-------------------------------------|
C#|-14----16-17-------16-------14-------|-12-------11----12-14----------------|
G#|-------------------------------------|-------------------------12----------|
C#|-------------------------------------|-------------------------------------|
  |
  |GTR II
d#|-------------------------------------|-------------------------------------|
A#|-------------------------------------|-------------------------------------|
F#|-------------------------------------|-------------------------------------|
C#|--0--------0--------0-----0--0-----0-|--7--------7--------7-----7--7-----7-|
G#|--0--------0--------0-----0--0-----0-|--7--------7--------7-----7--7-----7-|
C#|--0--------0--------0-----0--0-----0-|--7--------7--------7-----7--7-----7-|

   GTR I
d#|-------------------------------------|-------------------------------------|
A#|-------------------------------------|-------------------------------------|
F#|-------------------------------------|-------------------------------------|
C#|-14----11-14-------11----------------|-14----11-12----------------14-------|
G#|-------------------------------------|-------------------------------------|
C#|-------------------------------------|-------------------------------------|
  |
  |GTR II
d#|-------------------------------------|-------------------------------------|
A#|-------------------------------------|-------------------------------------|
F#|-------------------------------------|-------------------------------------|
C#|--7--------7--------7-----7--7-----7-|-10-------10-------10----10-10----10-|
G#|--7--------7--------7-----7--7-----7-|-10-------10-------10----10-10----10-|
C#|--7--------7--------7-----7--7-----7-|-10-------10-------10----10-10----10-|

   GTR I
d#|-------------------------------------|-------------------------------------|
A#|-------------------------------------|----------15b------------------------|
F#|----------14----------------16-------|-------------------------------------|
C#|-------------------------------------|-------------------------------------|
G#|-------------------------------------|-------------------------------------|
C#|-------------------------------------|-------------------------------------|
  |
  |GTR II
d#|-------------------------------------|-------------------------------------|
A#|-------------------------------------|-------------------------------------|
F#|-------------------------------------|-------------------------------------|
C#|--0--------0--------0-----0--0-----0-|--0--------0--------0-----0--0-----0-|
G#|--0--------0--------0-----0--0-----0-|--0--------0--------0-----0--0-----0-|
C#|--0--------0--------0-----0--0-----0-|--0--------0--------0-----0--0-----0-|

Bridge

   GTR I,II
d#|-------------------------------------|-------------------------------------|
A#|-------------------------------------|-------------------------------------|
F#|-------------------------------------|-------------------------------------|
C#|--7--------7--------7-----7--7-----7-|--5--------5--------5-----5--5-----5-|
G#|--7--------7--------7-----7--7-----7-|--5--------5--------5-----5--5-----5-|
C#|--7--------7--------7-----7--7-----7-|--5--------5--------5-----5--5-----5-|

   GTR I,II
d#|-------------------------------------|-------------------------------------|
A#|-------------------------------------|-------------------------------------|
F#|-------------------------------------|-------------------------------------|
C#|--0--------0--------0-----0--0-----0-|--7--------7--------7-----7--7-----7-|
G#|--0--------0--------0-----0--0-----0-|--7--------7--------7-----7--7-----7-|
C#|--0--------0--------0-----0--0-----0-|--7--------7--------7-----7--7-----7-|

   GTR I,II
d#|-------------------------------------|-------------------------------------|
A#|-------------------------------------|-------------------------------------|
F#|-------------------------------------|-------------------------------------|
C#|--7--------7--------7-----7--7-----7-|-10-------10-------10----10-10----10-|
G#|--7--------7--------7-----7--7-----7-|-10-------10-------10----10-10----10-|
C#|--7--------7--------7-----7--7-----7-|-10-------10-------10----10-10----10-|

   GTR I,II
d#|-------------------------------------|-------------------------------------|
A#|-------------------------------------|-------------------------------------|
F#|-------------------------------------|-------------------------------------|
C#|--0--------0--------0-----0--0-----0-|--0--------0--------0-----0--0-----0-|
G#|--0--------0--------0-----0--0-----0-|--0--------0--------0-----0--0-----0-|
C#|--0--------0--------0-----0--0-----0-|--0--------0--------0-----0--0-----0-|

   GTR I,II
d#|-------------------------------------|
A#|-------------------------------------|
F#|-------------------------------------|
C#|--0----------------------------------|
G#|--0----------------------------------|
C#|--0----------------------------------|

Chorus

Chorus 2

   GTR I
d#|-------------------------------------|-------------------------------------|
A#|-------------------------------------|-------------------------------------|
F#|-------------------------------------|-------------------------------------|
C#|--7--------7--------7-----7--7-----7-|--5--------5--------5-----5--5-----5-|
G#|--7--------7--------7-----7--7-----7-|--5--------5--------5-----5--5-----5-|
C#|--7--------7--------7-----7--7-----7-|--5--------5--------5-----5--5-----5-|
  |
  |GTR II
d#|-------------------------------------|-------------------------------------|
A#|-------------------------------------|-------------------------------------|
F#|--9--------9--------9----11-------11-|-12----11-12----11-12----11-------12-|
C#|--x--------x--------x-----x--------x-|--x-----x--x-----x--x-----x--------x-|
G#|--7--------7--------7-----9--------9-|-10-----9-10-----9-10-----9-------10-|
C#|-------------------------------------|-------------------------------------|

   GTR I
d#|-------------------------------------|-------------------------------------|
A#|-------------------------------------|-------------------------------------|
F#|-------------------------------------|-------------------------------------|
C#|--0--------0--------0-----0--0-----0-|--7--------7--------7-----7--7-----7-|
G#|--0--------0--------0-----0--0-----0-|--7--------7--------7-----7--7-----7-|
C#|--0--------0--------0-----0--0-----0-|--7--------7--------7-----7--7-----7-|
  |
  |GTR II
d#|-------------------------------------|-------------------------------------|
A#|-------------------------------------|-------------------------------------|
F#|-14----12-14----12-14----17-------12-|-14----12-14----12-14----------------|
C#|--x-----x--x-----x--x-----x--------x-|--x-----x--x-----x--x----------------|
G#|-12----10-12----10-12----15-------10-|-12----10-12----10-12----------------|
C#|-------------------------------------|-------------------------------------|

   GTR I
d#|-------------------------------------|-------------------------------------|
A#|-------------------------------------|-------------------------------------|
F#|-------------------------------------|-------------------------------------|
C#|--7--------7--------7-----7--7-----7-|--5--------5--------5-----5--5-----5-|
G#|--7--------7--------7-----7--7-----7-|--5--------5--------5-----5--5-----5-|
C#|--7--------7--------7-----7--7-----7-|--5--------5--------5-----5--5-----5-|
  |
  |GTR II
d#|-------------------------------------|-------------------------------------|
A#|-------------------------------------|-------------------------------------|
F#|--9--------9--------9----11-------11-|-12----11-12----11-12----11-------12-|
C#|--x--------x--------x-----x--------x-|--x-----x--x-----x--x-----x--------x-|
G#|--7--------7--------7-----9--------9-|-10-----9-10-----9-10-----9-------10-|
C#|-------------------------------------|-------------------------------------|

   GTR I
d#|-------------------------------------|-------------------------------------|
A#|-------------------------------------|-------------------------------------|
F#|-------------------------------------|-------------------------------------|
C#|--0--------0--------0-----0--0-----0-|--7--------7--------7-----7--7-----7-|
G#|--0--------0--------0-----0--0-----0-|--7--------7--------7-----7--7-----7-|
C#|--0--------0--------0-----0--0-----0-|--7--------7--------7-----7--7-----7-|
  |
  |GTR II
d#|-------------------------------------|-------------------------------------|
A#|-------------------------------------|-------------------------------------|
F#|-14----12-14----12-14----17-------12-|-14----12-14----12-14----------------|
C#|--x-----x--x-----x--x-----x--------x-|--x-----x--x-----x--x----------------|
G#|-12----10-12----10-12----15-------10-|-12----10-12----10-12----------------|
C#|-------------------------------------|-------------------------------------|

Outro

   GTR I,II
d#|-------------------------------------|-------------------------------------|
A#|-------------------------------------|-------------------------------------|
F#|-------------------------------------|-------------------------------------|
C#|--7-----7--7-----7--7-----7--7-----7-|--7-----7--7-----7-10-------10\------|
G#|--7-----7--7-----7--7-----7--7-----7-|--7-----7--7-----7-10-------10\------|
C#|--7-----7--7-----7--7-----7--7-----7-|--7-----7--7-----7-10-------10\------|


| b  bend
| r  release bend
|trp triplet
|PH. pinch harmonic
|fbk feedback
| .  palm-mute
| /  slide up
| \  slide down
| h  hammer-on
| p  pull-off
| ~  vibrato
|(7) harmonic
| x  Mute note
===============================================================================
comments
We did not receive enough feedback on this tab! Please rate:
print report bad tab
1 2 3 4 5
3 comments total.
0 reply
rocknrolldude43 wrote on August 29 2011, 10:14 pm

Just to clarify on who plays what, I saw them live last night and Dave actually plays the solo on this song, not Tyler. Not only that, Tyler actually plays the chords in the intro/post-chorus on the second fret.

Aside from those two things, solid tab.

0 reply
robbie.thecloud wrote on August 31 2011, 04:54 pm

nice thanks!!!! do you have any planes for the rest of the cd????

0 reply
mattjh6 wrote on December 31 2011, 10:00 am

Perfect tab 5 stars. rocknrolldude43 says Tyler plays it on the second fret, you can just play a regular A chord rather than what you tabbed but both work fine. Thanks a lot.

I want to post or [tab]
guest
You may want to rate the tab now too:
select rating
Please do not post tabs as comments. Select "correction" instead!