Oops, an error
Loading. Please wait.

Since Youve Been Gone Tab

112 views 12 this week
no commentswrite comment
1 2 3 4 5
please rate
Autoscroll
+/-
esc
set tempo
stop
Contributor
Difficulty
Tuning
intermediate
D G C F A D
WARNING: You are trying to view
                                    content from Ultimate-Guitar.com
                                    in an unauthorized application,
                                    which is prohibited.

                                    Please use an official Ultimate
                                    Guitar Tabs application for iPhone,
                                    iPad or Android to access legitimate
                                    chords, guitar, bass, and drum tabs
                                    from Ultimate-Guitar.com database.

                                    Type "ultimate guitar tabs" in Apple
                                    App Store's or Android Market's
                                    search to find the application.

(D-G-C-F-A-D)

Intro


D|----------------------------------------3-3-3-3-2--2-2-2-0--|
A|--2--2-2-2-2h3-3-3---2--2-2-2-2h3-3-3---3-3-3-3-3--3-3-3-0--|
F|--2--2-2-2-2---2-2---2--2-2-2-2---2-2---0-0-0-0-0--0-0-0----|
C|--2--2-2-2-2---2-2-4-2--2-2-2-2---2-2-5-0-0-0-0-0--0-0-0-2--|
G|--0--0-0-0-0---0-0---0--0-0-0-0---0-0--------------------2--|
D|----------------------------------------3-3-3-3-3--3-3-3-0--|



verse

Guitar 1

D|---------------------------------------3--3-3-3-2--2-2-2-2--2-2-2-2--2-2-2|
A|-2--2-2-2-2h3-3-3-3-2--2-2-2-2h3-3-3-3-3--3-3-3-3--3-3-3-3--3-3-3-3--3-3-3|
F|-2--2-2-2-2---2-2-2-2--2-2-2-2---2-2-2-0--0-0-0-0--0-0-0-0--0-0-0-0--0-0-0|
C|-2--2-2-2-2---2-2-2-2--2-2-2-2---2-2-2-0--0-0-0-0--0-0-0-0--0-0-0-0--0-0-0|
G|-0--0-0-0-0---0-0-0-0--0-0-0-0---0-0-0------------------------------------|
D|---------------------------------------3--3-3-3-3--3-3-3-3--3-3-3-3--3-3-3|

Guitar 2

D|--------------------------------5-----------------------------------------|
A|-2--2-2-2-2h3-3-3-3-2--2-2-2-2h3-5----------------------------------------|
F|-2--2-2-2-2---2-2-2-2--2-2-2-2----6-0-2-----------------------------------|
C|-2--2-2-2-2---2-2-2-2--2-2-2-2--------------------------------------------|
G|-0--0-0-0-0---0-0-0-0--0-0-0-0--------------------------------------------|
D|--------------------------------------------------------------------------|


Guitar 1

D|---------------------------------------3--3-3-3-2--2-2-2-2--2-2-2-2-------|
A|-2--2-2-2-2h3-3-3-3-2--2-2-2-2h3-3-3-3-3--3-3-3-3--3-3-3-3--3-3-3-3-------|
F|-2--2-2-2-2---2-2-2-2--2-2-2-2---2-2-2-0--0-0-0-0--0-0-0-0--0-0-0-0-------|
C|-2--2-2-2-2---2-2-2-2--2-2-2-2---2-2-2-0--0-0-0-0--0-0-0-0--0-0-0-0-------|
G|-0--0-0-0-0---0-0-0-0--0-0-0-0---0-0-0------------------------------------|
D|---------------------------------------3--3-3-3-3--3-3-3-3--3-3-3-3-------|

Guitar 2

D|--------------------------------5-----------------------------------------|
A|-2--2-2-2-2h3-3-3-3-2--2-2-2-2h3-5----------------------------------------|
F|-2--2-2-2-2---2-2-2-2--2-2-2-2----6-0-2-----------------------------------|
C|-2--2-2-2-2---2-2-2-2--2-2-2-2--------------------------------------------|
G|-0--0-0-0-0---0-0-0-0--0-0-0-0--------------------------------------------|
D|--------------------------------------------------------------------------|


Guitar 1

D|---------------------------------------3--3-3-3-2--2-2-2-2--2-2-2-2--2-2-2|
A|-2--2-2-2-2h3-3-3-3-2--2-2-2-2h3-3-3-3-3--3-3-3-3--3-3-3-3--3-3-3-3--3-3-3|
F|-2--2-2-2-2---2-2-2-2--2-2-2-2---2-2-2-0--0-0-0-0--0-0-0-0--0-0-0-0--0-0-0|
C|-2--2-2-2-2---2-2-2-2--2-2-2-2---2-2-2-0--0-0-0-0--0-0-0-0--0-0-0-0--0-0-0|
G|-0--0-0-0-0---0-0-0-0--0-0-0-0---0-0-0------------------------------------|
D|---------------------------------------3--3-3-3-3--3-3-3-3--3-3-3-3--3-3-3|

Guitar 2

D|--------------------------------5-----------------------------------------|
A|-2--2-2-2-2h3-3-3-3-2--2-2-2-2h3-5----------------------------------------|
F|-2--2-2-2-2---2-2-2-2--2-2-2-2----6-0-2-----------------------------------|
C|-2--2-2-2-2---2-2-2-2--2-2-2-2--------------------------------------------|
G|-0--0-0-0-0---0-0-0-0--0-0-0-0--------------------------------------------|
D|--------------------------------------------------------------------------|


Guitar 1

D|---------------------------------------3--3-3-3-2--2-2-2-0--0-0-0-0--0-0-0|
A|-2--2-2-2-2h3-3-3-3-2--2-2-2-2h3-3-3-3-3--3-3-3-3--3-3-3-0--0-0-0-0--0-0-0|
F|-2--2-2-2-2---2-2-2-2--2-2-2-2---2-2-2-0--0-0-0-0--0-0-0------------------|
C|-2--2-2-2-2---2-2-2-2--2-2-2-2---2-2-2-0--0-0-0-0--0-0-0-2--2-2-2-2--2-2-2|
G|-0--0-0-0-0---0-0-0-0--0-0-0-0---0-0-0-------------------2--2-2-2-2--2-2-2|
D|---------------------------------------3--3-3-3-3--3-3-3-0--0-0-0-0--0-0-0|

Guitar 2

D|--------------------------------5-----------------------------------------|
A|-2--2-2-2-2h3-3-3-3-2--2-2-2-2h3-5----------------------------------------|
F|-2--2-2-2-2---2-2-2-2--2-2-2-2----6-0-2-----------------------------------|
C|-2--2-2-2-2---2-2-2-2--2-2-2-2--------------------------------------------|
G|-0--0-0-0-0---0-0-0-0--0-0-0-0--------------------------------------------|
D|--------------------------------------------------------------------------|



Chorus

Guitar 1

D|-0--0-0-0-0--0-0-0-0--0-0-0-0--0-0-0-3--3-3-3-3--3-3-3-2--2-2-2-2--2-2-2--|
A|-2--2-2-2-2--2-2-2-0--0-0-0-0--0-0-0-3--3-3-3-3--3-3-3-3--3-3-3-3--3-3-3--|
F|-2--2-2-2-2--2-2-2-------------------0--0-0-0-0--0-0-0-2--2-2-2-2--2-2-2--|
C|-2--2-2-2-2--2-2-2-2--2-2-2-2--2-2-2-0--0-0-0-0--0-0-0-0--0-0-0-0--0-0-0--|
G|-0--0-0-0-0--0-0-0-2--2-2-2-2--2-2-2--------------------------------------|
D|-------------------0--0-0-0-0--0-0-0-3--3-3-3-3--3-3-3--------------------|


D|-0--0-0-0-0--0-0-0-0--0-0-0-0--0-0-0-3--3-3-3-3--3-3-3--2-|--------------||
A|-2--2-2-2-2--2-2-2-0--0-0-0-0--0-0-0-3--3-3-3-3--3-3-3--3-|--------------||
F|-2--2-2-2-2--2-2-2-------------------0--0-0-0-0--0-0-0--2-|--------------||
C|-2--2-2-2-2--2-2-2-2--2-2-2-2--2-2-2-0--0-0-0-0--0-0-0--0-|--------------||
G|-0--0-0-0-0--0-0-0-2--2-2-2-2--2-2-2----------------------|--------------||
D|-------------------0--0-0-0-0--0-0-0-3--3-3-3-3--3-3-3----|--------------||

Play second time only

D|-2--2-2-2-----||
A|-3--3-3-3-----||
F|-2--2-2-2-----||
C|-0--0-0-0-----||
G|--------------||
D|----------3-2-||



Guitar 1

D|---------------------------------------3--3-3-3-2--2-2-2-0--|
A|-2--2-2-2-2h3-3-----2--2-2-2-2h3-3-3-3-3--3-3-3-3--3-3-3-0--|
F|-2--2-2-2-2---2-----2--2-2-2-2---2-2-2-0--0-0-0-0--0-0-0----|
C|-2--2-2-2-2---2-2h4-2--2-2-2-2---2-2-2-0--0-0-0-0--0-0-0-2--|
G|-0--0-0-0-0---0-----0--0-0-0-0---0-0-0-------------------2--|
D|---------------------------------------3--3-3-3-3--3-3-3-0--|



Repeat Verse

Repeat Chorus


Bridge

Both Guitars

D|-0--0-0-0-0--0-0-0-3--3-3-3-3--3-3-3-2--2-2-2-2--2-2-2--------------------|
A|-0--0-0-0-0--0-0-0-3--3-3-3-3--3-3-3-3--3-3-3-3--3-3-3-3--3-3-3-3--3-3-3--|
F|-------------------0--0-0-0-0--0-0-0-2--2-2-2-2--2-2-2-0--0-0-0-0--0-0-0--|
C|-2--2-2-2-2--2-2-2-0--0-0-0-0--0-0-0-0--0-0-0-0--0-0-0--------------------|
G|-2--2-2-2-2--2-2-2-------------------------------------3--3-3-3-3--3-3-2--|
D|-0--0-0-0-0--0-0-0-3--3-3-3-3--3-3-3--------------------------------------|


D|-0--0-0-0-0--0-0-0-3--3-3-3-3--3-3-3-2--2-2-2-2--2-2-2--------------------|
A|-0--0-0-0-0--0-0-0-3--3-3-3-3--3-3-3-3--3-3-3-3--3-3-3-3--3-3-3-3--3-3-3-3|
F|-------------------0--0-0-0-0--0-0-0-2--2-2-2-2--2-2-2-0--0-0-0-0--0-0-0-0|
C|-2--2-2-2-2--2-2-2-0--0-0-0-0--0-0-0-0--0-0-0-0--0-0-0--------------------|
G|-2--2-2-2-2--2-2-2-------------------------------------3--3-3-3-3--3-3-3-3|
D|-0--0-0-0-0--0-0-0-3--3-3-3-3--3-3-3--------------------------------------|


D|------------------||
A|--3-3-3-3--3-3-3--||
F|--0-0-0-0--0-0-0--||
C|------------------||
G|--3-3-3-2--2-2-2--||
D|------------------||



Solo

Guitar 1

D|---------------------------------------3--3-3-3-2--2-2-2-2--2-2-2---------|
A|-2--2-2-2-2h3-3-3-3-2--2-2-2-2h3-3-3-3-3--3-3-3-3--3-3-3-3--3-3-3---------|
F|-2--2-2-2-2---2-2-2-2--2-2-2-2---2-2-2-0--0-0-0-0--0-0-0-0--0-0-0---------|
C|-2--2-2-2-2---2-2-2-2--2-2-2-2---2-2-2-0--0-0-0-0--0-0-0-0--0-0-0---------|
G|-0--0-0-0-0---0-0-0-0--0-0-0-0---0-0-0------------------------------------|
D|---------------------------------------3--3-3-3-3--3-3-3-3--3-3-3---------|

Guitar 2

D|---------------------------------------------0----------------------------|
A|------10------------------------------5-----------------------------------|
F|------9---------------------2h4p2-4/6--7--6--4--2----------2--------------|
C|-9h11----11\9-7h9-7------2h4-----------------------2h4--2-----------------|
G|--------------------0-2h4----------------------------------------2b-2b-2b-|
D|--------------------------------------------------------------------------|


Guitar 1

D|-------------------------------------------------3--3-3-3-2--2-2-2-2------|
A|-2----2-2-2-2h3--3-3-3---2----2-2-2-2h3--3-3-3---3--3-3-3-3--3-3-3-3------|
F|-2----2-2-2-2----2-2-2---2----2-2-2-2----2-2-2---0--0-0-0-0--0-0-0-0------|
C|-2----2-2-2-2----2-2-2---2----2-2-2-2----2-2-2---0--0-0-0-0--0-0-0-0------|
G|-0----0-0-0-0----0-0-0---0----0-0-0-0----0-0-0----------------------------|
D|-------------------------------------------------3--3-3-3-3--3-3-3-3------|

Guitar 2

D|-------------------------------------------------0--0-0--0-0-0-0-0-2------|
A|-1515151414141212121010101515151414141212121010108--8-7--7-5-5-3-3-3------|
F|--------------------------------------------------------------------------|
C|--------------------------------------------------------------------------|
G|--------------------------------------------------------------------------|
D|--------------------------------------------------------------------------|


Guitar 1

D|---------------------------------------3--3-3-3-2--2-2-2--2---------------|
A|-2--2-2-2-2h3-3-3-3-2--2-2-2-2h3-3-3-3-3--3-3-3-3--3-3-3--3---------------|
F|-2--2-2-2-2---2-2-2-2--2-2-2-2---2-2-2-0--0-0-0-0--0-0-0--0---------------|
C|-2--2-2-2-2---2-2-2-2--2-2-2-2---2-2-2-0--0-0-0-0--0-0-0--0---------------|
G|-0--0-0-0-0---0-0-0-0--0-0-0-0---0-0-0------------------------------------|
D|---------------------------------------3--3-3-3-3--3-3-3--3---------------|


D|---------------------------------------3-3-3-3-3-3-0--0-0-0-0-0-----------|
A|-2--2-2-2-2h3-3-3-3-2--2-2-2-2h3-3-3-3-3-3-3-3-3-3-0--0-0-0-0-0-----------|
F|-2--2-2-2-2---2-2-2-2--2-2-2-2---2-2-2-0-0-0-0-0-0------------------------|
C|-2--2-2-2-2---2-2-2-2--2-2-2-2---2-2-2-0-0-0-0-0-0-2--2-2-2-2-2-----------|
G|-0--0-0-0-0---0-0-0-0--0-0-0-0---0-0-0-------------2--2-2-2-2-2-----------|
D|---------------------------------------3-3-3-3-3-3-0--0-0-0-0-0-----------|


Both Guitars Play two twice

D|-0--0-0-0-0--0-0-0-0--0-0-0-0--0-0-0-3--3-3-3-3--3-3-3-2--2-2-2-2--2-2-2-||
A|-2--2-2-2-2--2-2-2-0--0-0-0-0--0-0-0-3--3-3-3-3--3-3-3-3--3-3-3-3--3-3-3-||
F|-2--2-2-2-2--2-2-2-------------------0--0-0-0-0--0-0-0-2--2-2-2-2--2-2-2-||
C|-2--2-2-2-2--2-2-2-2--2-2-2-2--2-2-2-0--0-0-0-0--0-0-0-0--0-0-0-0--0-0-0-||
G|-0--0-0-0-0--0-0-0-2--2-2-2-2--2-2-2-------------------------------------||
D|-------------------0--0-0-0-0--0-0-0-3--3-3-3-3--3-3-3-------------------||



Outro

Guitar 1

D|-0--0-0-0-0--0-0-0-0--0-0-0-0--0-0-0-3--3-3-3-3--3-3-3-2--2-2-2-2--2-2-2--|
A|-2--2-2-2-2--2-2-2-0--0-0-0-0--0-0-0-3--3-3-3-3--3-3-3-3--3-3-3-3--3-3-3--|
F|-2--2-2-2-2--2-2-2-------------------0--0-0-0-0--0-0-0-2--2-2-2-2--2-2-2--|
C|-2--2-2-2-2--2-2-2-2--2-2-2-2--2-2-2-0--0-0-0-0--0-0-0-0--0-0-0-0--0-0-0--|
G|-0--0-0-0-0--0-0-0-2--2-2-2-2--2-2-2--------------------------------------|
D|-------------------0--0-0-0-0--0-0-0-3--3-3-3-3--3-3-3--------------------|

Guitar 2

D|--------------------------------------------------------------------------|
A|--------------------------------------------------------------------------|
F|-777-666-444-2-2-2-777-666-444-2-2-2-------------2-2-2--------------------|
C|-------------------------------------555-444-222-------4--4b--4b---2------|
G|--------------------------------------------------------------------------|
D|--------------------------------------------------------------------------|


Guitar 1

D|-0--0-0-0-0--0-0-0-0--0-0-0-0--0-0-0-3--3-3-3-3--3-3-3--0--|
A|-2--2-2-2-2--2-2-2-0--0-0-0-0--0-0-0-3--3-3-3-3--3-3-3--0--|
F|-2--2-2-2-2--2-2-2-------------------0--0-0-0-0--0-0-0-----|
C|-2--2-2-2-2--2-2-2-2--2-2-2-2--2-2-2-0--0-0-0-0--0-0-0--2--|
G|-0--0-0-0-0--0-0-0-2--2-2-2-2--2-2-2--------------------2--|
D|-------------------0--0-0-0-0--0-0-0-3--3-3-3-3--3-3-3--0--|

Guitar 2

D|-----------------------------------------------------------|
A|-----------------------------------------------------------|
F|-777-666-444-2-2-2-777-666-444-2-2-2-------------2-2-2-/4--|
C|-------------------------------------555-444-222-----------|
G|-----------------------------------------------------------|
D|-----------------------------------------------------------|
comments
We did not receive enough feedback on this tab! Please rate:
1 2 3 4 5
I want to post or [tab]
guest
You may want to rate the tab now too:
select rating
Please do not post tabs as comments. Select "correction" instead!