Oops, an error
Loading. Please wait.

Screamager Tab

11,586 views 9 this week
1 commentread comment
1 2 3 4 5
excellent!
x 4
Autoscroll
+/-
esc
set tempo
stop
Contributor
WARNING: You are trying to view
                                    content from Ultimate-Guitar.com
                                    in an unauthorized application,
                                    which is prohibited.

                                    Please use an official Ultimate
                                    Guitar Tabs application for iPhone,
                                    iPad or Android to access legitimate
                                    chords, guitar, bass, and drum tabs
                                    from Ultimate-Guitar.com database.

                                    Type "ultimate guitar tabs" in Apple
                                    App Store's or Android Market's
                                    search to find the application.
Therapy? - Screamager
Any comments or questions then mail me at ruled_by_secrecy_6@hotmail.com

Intro Part 1

Guitar 1
e|------||----------|----------|----------|--------------||
B|------||----------|----------|----------|--------------||
G|------||----------|-5-5-5----|----------|-5-5-5--7-7-7-||
D|------||-2-2-2----|-5-5-5----|-2-2-2----|-5-5-5--7-7-7-||
A|--5/--||-2-2-2----|-3-3-3----|-2-2-2----|-3-3-3--5-5-5-||
E|--7/--||-0-0-0----|----------|-0-0-0----|--------------||

Guitar 2 - Rest

---
Intro Part 2

Guitar 1
e||-----------------|-----------------|-----------------|-----------------||
B||-----------------|-----------------|-----------------|-----------------||
G||-----------------|-5-5-5-5-5-5-5-5-|-----------------|-5-5-5-5-7-7-7-7-||
D||-2-2-2-2-2-2-2-2-|-5-5-5-5-5-5-5-5-|-2-2-2-2-2-2-2-2-|-5-5-5-5-7-7-7-7-||
A||-2-2-2-2-2-2-2-2-|-3-3-3-3-3-3-3-3-|-2-2-2-2-2-2-2-2-|-3-3-3-3-5-5-5-5-||
E||-0-0-0-0-0-0-0-0-|-----------------|-0-0-0-0-0-0-0-0-|-----------------||

Guitar 2
e||-----------------|-----------------|-----------------|---------5p4-5p4-||
B||-5-5-5-5-5-5-5-5-|-8p5-8p5-8p5-8p5-|-5-5-5-5-5-5-5-5-|-8p5-8p5---------||
G||-----------------|-----------------|-----------------|-----------------||
D||-----------------|-----------------|-----------------|-----------------||
A||-----------------|-----------------|-----------------|-----------------||
E||-----------------|-----------------|-----------------|-----------------||

Transition to main riff
Both guitars play
e|-----|
B|-----|
G|--5--|
D|--5--|
A|--3--|
E|-----|

---
Main Riff

Guitar 1
e||-------------|-------------|-------------|-------------||
B||-------------|-------------|-------------|-------------||
G||-------------|-5-----------|-------------|-7-----------||
D||-2-----------|-5-----------|-5-----------|-7-----------||
A||-2-----------|-3-----------|-5-----------|-5-----------||
E||-0-----------|-------------|-3-----------|-------------||

Guitar 2
e||-------------|-------------|-------------|-------------||
B||-------------|-------------|-------------|-------------||
G||-------------|-------------|-------------|-------------||
D||---4h5-5-4h5-|---4h5-5-4h5-|---4h5-5-4h5-|---5h7-7-5-4-||
A||-7-----------|-3-----------|-------------|-5-----------||
E||-------------|-------------|-3-----------|-------------||

---
Verse 1

Guitar 1
e||----------|----------|----------|--------------||
B||----------|----------|----------|--------------||
G||----------|-5-5-5----|----------|-5-5-5--7-7-7-||
D||-2-2-2----|-5-5-5----|-2-2-2----|-5-5-5--7-7-7-||
A||-2-2-2----|-3-3-3----|-2-2-2----|-3-3-3--5-5-5-||
E||-0-0-0----|----------|-0-0-0----|--------------||

Guitar 2 - Rest

---

Guitar 1
e||-----------------|-----------------|-----------------|-----------------||
B||-----------------|-----------------|-----------------|-----------------||
G||-----------------|-5-5-5-5-5-5-5-5-|-----------------|-5-5-5-5-7-7-7-7-||
D||-2-2-2-2-2-2-2-2-|-5-5-5-5-5-5-5-5-|-2-2-2-2-2-2-2-2-|-5-5-5-5-7-7-7-7-||
A||-2-2-2-2-2-2-2-2-|-3-3-3-3-3-3-3-3-|-2-2-2-2-2-2-2-2-|-3-3-3-3-5-5-5-5-||
E||-0-0-0-0-0-0-0-0-|-----------------|-0-0-0-0-0-0-0-0-|-----------------||

Guitar 2 - Rest

---
Chorus 1

Guitar 1
e||-------------|-------------|-------------|-------------||
B||-------------|-------------|-------------|-------------||
G||-------------|-5-----------|-------------|-7-----------||
D||-2-----------|-5-----------|-5-----------|-7-----------||
A||-2-----------|-3-----------|-5-----------|-5-----------||
E||-0-----------|-------------|-3-----------|-------------||

Guitar 2
e||-------------|-------------|-------------|-------------||
B||-------------|-------------|-------------|-------------||
G||-------------|-------------|-------------|-------------||
D||---4h5-5-4h5-|---4h5-5-4h5-|---4h5-5-4h5-|---5h7-7-5-4-||
A||-7-----------|-3-----------|-------------|-5-----------||
E||-------------|-------------|-3-----------|-------------||

Guitar 1
e|----------|----------|----------|--------------|
B|----------|----------|----------|--------------|
G|----------|-5-5-5----|----------|-5-5-5--7-7-7-|
D|-2-2-2----|-5-5-5----|-2-2-2----|-5-5-5--7-7-7-|
A|-2-2-2----|-3-3-3----|-2-2-2----|-3-3-3--5-5-5-|
E|-0-0-0----|----------|-0-0-0----|--------------|

Guitar 2 - Rest

---
Verse 2

Guitar 1
e||-----------------|-----------------|-----------------|-----------------||
B||-----------------|-----------------|-----------------|-----------------||
G||-----------------|-5-5-5-5-5-5-5-5-|-----------------|-5-5-5-5-7-7-7-7-||
D||-2-2-2-2-2-2-2-2-|-5-5-5-5-5-5-5-5-|-2-2-2-2-2-2-2-2-|-5-5-5-5-7-7-7-7-||
A||-2-2-2-2-2-2-2-2-|-3-3-3-3-3-3-3-3-|-2-2-2-2-2-2-2-2-|-3-3-3-3-5-5-5-5-||
E||-0-0-0-0-0-0-0-0-|-----------------|-0-0-0-0-0-0-0-0-|-----------------||
All PM

Guitar 2 - Rest

---

Guitar 1
e||-----------------|-----------------|-----------------|-----------------||
B||-----------------|-----------------|-----------------|-----------------||
G||-----------------|-5-5-5-5-5-5-5-5-|-----------------|-5-5-5-5-7-7-7-7-||
D||-2-2-2-2-2-2-2-2-|-5-5-5-5-5-5-5-5-|-2-2-2-2-2-2-2-2-|-5-5-5-5-7-7-7-7-||
A||-2-2-2-2-2-2-2-2-|-3-3-3-3-3-3-3-3-|-2-2-2-2-2-2-2-2-|-3-3-3-3-5-5-5-5-||
E||-0-0-0-0-0-0-0-0-|-----------------|-0-0-0-0-0-0-0-0-|-----------------||

Guitar 2 - Rest

---
Chorus 2

Guitar 1
e||-------------|-------------|-------------|-------------||
B||-------------|-------------|-------------|-------------||
G||-------------|-5-----------|-------------|-7-----------||
D||-2-----------|-5-----------|-5-----------|-7-----------||
A||-2-----------|-3-----------|-5-----------|-5-----------||
E||-0-----------|-------------|-3-----------|-------------||

Guitar 2
e||-------------|-------------|-------------|-------------||
B||-------------|-------------|-------------|-------------||
G||-------------|-------------|-------------|-------------||
D||---4h5-5-4h5-|---4h5-5-4h5-|---4h5-5-4h5-|---5h7-7-5-4-||
A||-7-----------|-3-----------|-------------|-5-----------||
E||-------------|-------------|-3-----------|-------------||

---
Bridge

Guitar 1
e|-----------------|-----------------|-----------------|-----------------|
B|-----------------|-----------------|-----------------|-----------------|
G|-----------------|-5-5-5-5-5-5-5-5-|-----------------|-5-5-5-5-7-7-7-7-|
D|-2-2-2-2-2-2-2-2-|-5-5-5-5-5-5-5-5-|-2-2-2-2-2-2-2-2-|-5-5-5-5-7-7-7-7-|
A|-2-2-2-2-2-2-2-2-|-3-3-3-3-3-3-3-3-|-2-2-2-2-2-2-2-2-|-3-3-3-3-5-5-5-5-|
E|-0-0-0-0-0-0-0-0-|-----------------|-0-0-0-0-0-0-0-0-|-----------------|

Guitar 2
e|-----------------|-----------------|-----------------|---------5p4-5p4-|
B|-5-5-5-5-5-5-5-5-|-8p5-8p5-8p5-8p5-|-5-5-5-5-5-5-5-5-|-8p5-8p5---------|
G|-----------------|-----------------|-----------------|-----------------|
D|-----------------|-----------------|-----------------|-----------------|
A|-----------------|-----------------|-----------------|-----------------|
E|-----------------|-----------------|-----------------|-----------------|

---

Guitar 1
e|-----------------|-----------------|-----------------|-----------------|
B|-----------------|-----------------|-----------------|-----------------|
G|-----------------|-5-5-5-5-5-5-5-5-|-----------------|-5-5-5-5-7-7-7-7-|
D|-2-2-2-2-2-2-2-2-|-5-5-5-5-5-5-5-5-|-2-2-2-2-2-2-2-2-|-5-5-5-5-7-7-7-7-|
A|-2-2-2-2-2-2-2-2-|-3-3-3-3-3-3-3-3-|-2-2-2-2-2-2-2-2-|-3-3-3-3-5-5-5-5-|
E|-0-0-0-0-0-0-0-0-|-----------------|-0-0-0-0-0-0-0-0-|-----------------|

Guitar 2
e|-----------------|-----------------|-5--------7------|-10------12~-----|
B|-5-5-5-5-5-5-5-5-|-8p5-8p5-8p5-8p5-|-----------------|-----------------|
G|-----------------|-----------------|-----------------|-----------------|
D|-----------------|-----------------|-----------------|-----------------|
A|-----------------|-----------------|-----------------|-----------------|
E|-----------------|-----------------|-----------------|-----------------|

---
Outro

Guitar 1
e|-------------|-------------|-------------|-------------|
B|-------------|-------------|-------------|-------------|
G|-------------|-5-----------|-------------|-7-----------|
D|-2-----------|-5-----------|-5-----------|-7-----------|
A|-2-----------|-3-----------|-5-----------|-5-----------|
E|-0-----------|-------------|-3-----------|-------------|

Guitar 2
e|-------------|-------------|-------------|-------------|
B|-------------|-------------|-------------|-------------|
G|-------------|-------------|-------------|-------------|
D|---4h5-5-4h5-|---4h5-5-4h5-|---4h5-5-4h5-|---5h7-7-5-4-|
A|-7-----------|-3-----------|-------------|-5-----------|
E|-------------|-------------|-3-----------|-------------|

---

Guitar 1
e||-----------------|-----------------|-----------------|-----------------||
B||-----------------|-----------------|-----------------|-----------------||
G||-----------------|-5-5-5-5-5-5-5-5-|-----------------|-5-5-5-5-7-7-7-7-||
D||-2-2-2-2-2-2-2-2-|-5-5-5-5-5-5-5-5-|-2-2-2-2-2-2-2-2-|-5-5-5-5-7-7-7-7-||
A||-2-2-2-2-2-2-2-2-|-3-3-3-3-3-3-3-3-|-2-2-2-2-2-2-2-2-|-3-3-3-3-5-5-5-5-||
E||-0-0-0-0-0-0-0-0-|-----------------|-0-0-0-0-0-0-0-0-|-----------------||

Guitar 2
e||-----------------|-----------------|-----------------|---------5p4-5p4-||
B||-5-5-5-5-5-5-5-5-|-8p5-8p5-8p5-8p5-|-5-5-5-5-5-5-5-5-|-8p5-8p5---------||
G||-----------------|-----------------|-----------------|-----------------||
D||-----------------|-----------------|-----------------|-----------------||
A||-----------------|-----------------|-----------------|-----------------||
E||-----------------|-----------------|-----------------|-----------------||

---

End on

Guitar 1
e|------------------|
B|------------------|
G|------------------|
D|-2----------------|
A|-2----------------|
E|-0----------------|

Guitar 2
e|------------------|
B|-5~---------------|
G|------------------|
D|------------------|
A|------------------|
E|------------------|
comments
print report bad tab
1 comment total.
+1 reply
Master_Squall wrote on November 19 2006, 02:53 pm

Great tab!

I want to post or [tab]
guest
You may want to rate the tab now too:
select rating
Please do not post tabs as comments. Select "correction" instead!