Oops, an error
Loading. Please wait.

Waiting Tab

ver1
ver1

Intro

Whole song

More versions @911Tabs.com
3,784 views 6 this week
no commentswrite comment
1 2 3 4 5
accurate
x 2
Autoscroll
+/-
esc
set tempo
stop
Contributor
WARNING: You are trying to view
                                    content from Ultimate-Guitar.com
                                    in an unauthorized application,
                                    which is prohibited.

                                    Please use an official Ultimate
                                    Guitar Tabs application for iPhone,
                                    iPad or Android to access legitimate
                                    chords, guitar, bass, and drum tabs
                                    from Ultimate-Guitar.com database.

                                    Type "ultimate guitar tabs" in Apple
                                    App Store's or Android Market's
                                    search to find the application.
Tuning: Drop D

			Guitar Two

E|-----------------------------------------------------------------|
B|-----------------------------------------------------------------|
G|-----------------------------------------------------------------|
D|--6--8--9------8--9-------------8--9------8--9---9/11-11---------|
A|--6---------9---------9-9-9-9----------9---------7/9--9----------|
D|--6 6--6--6--6---6--6--------- 6--6--6--6---6--6-----------------|

E|-----------------------------------------------------------------|
B|-----------------------------------------------------------------|
G|------------------------------------------------11-9-8h9p8-------|
D|--6--8--9------8--9-------------8--9------8--9-------------------|
A|--6---------9---------9-9-9-9----------9-------------------------|
D|--6 6--6--6--6---6--6--------- 6--6--6--6---6--6-----------------|

E|-----------------------------------------------------------------|
B|-----------------------------------------------------------------|
G|-----------------------------------------------------------------|
D|---8--9------8--9-------------8--9------8--9---9/11-11--6~----2--|
A|----------9---------9-9-9-9----------9---------7/9--9---6~----2--|
D|--6--6--6--6---6--6--------- 6--6--6--6---6--6----------6~----2--|

E|-----------------------------------------------------------------|
B|-----------------------------------------------------------------|
G|-----------------------------------------------------------------|
D|-------------6------2------4------4 4---4 4 4--------------------|
A|-------------6 x32--2 x16--4 x10--4 4---4 4 4--------------------|
D|-------------6------2------4------4 4---4 4 4--------------------|
  PM           ................

               (What are we waiting for)
E|-----------------------------------------------------------------|
B|-----------------------------------------------------------------|
G|-----------------------------------------------------------------|
D|-------------2------4------6------9-----9------------------------|
A|-------------2 x16--4 x16--6 x16--9 x8--9------------------------|
D|-------------2------4------6------9-----9------------------------|

          (Slowyly but surely...)
E|-----------------------------------------------------------------|
B|-----------------------------------------------------------------|
G|-----------------------------------------------------------------|
D|------6------9------2------4------6------1------2------4---------|
A|------6------9------2------4------6------1------2------4---------|
D|------6------9------2------4------6------1------2------4---------|
 The strumming pattern's not too hard on this one, you can figure it out

E|-----------------------------------------------------------------|
B|-----------------------------------------------------------------|
G|-----------------------------------------------------------------|
D|-------8--9------8--9---9/11-11----------------------------------|
A|--------------9---------7/9--9-----------------------------------|
D|----6 6--6--6--6---6--6------------------------------------------|

E|-----------------------------------------------------------------|
B|-----------------------------------------------------------------|
G|-----------------------------------------------------------------|
D|-------------6------2------4------4 4---4 4 4--------------------|
A|-------------6 x32--2 x16--4 x10--4 4---4 4 4--------------------|
D|-------------6------2------4------4 4---4 4 4--------------------|
  PM           ................

E|-----------------------------------------------------------------|
B|-----------------------------------------------------------------|
G|-----------------------------------------------------------------|
D|-------------6------2------4-------------------------------------|
A|-------------6 x32--2 x16--4 x8--*Pull off slowly* --------------|
D|-------------6------2------4-------------------------------------|
  PM           ..................

               (What are we waiting for)
E|-----------------------------------------------------------------|
B|-----------------------------------------------------------------|
G|-----------------------------------------------------------------|
D|-------------2------4------6------9-----9------------------------|
A|-------------2 x16--4 x16--6 x16--9 x8--9------------------------|
D|-------------2------4------6------9-----9------------------------|

          (Slowyly but surely...)
E|-----------------------------------------------------------------|
B|-----------------------------------------------------------------|
G|-----------------------------------------------------------------|
D|------6------9------2------4------6------1------2------4---------|
A|------6------9------2------4------6------1------2------4---------|
D|------6------9------2------4------6------1------2------4---------|
 The strumming pattern's not too hard on this one, you can figure it out

Bridge:
E|----------------------------------------------|------------------|
B|----------------------------------------------|--*last time*-----|
G|----------------------------------------------|------------------|
D|-------------2------4------6------9-----------|---2~~------------|x2
A|-------------2 x16--4 x16--6 x16--9 x16-------|---2~~------------|
D|-------------2------4------6------9-----------|---2~~------------|

    (3:00)
E|-----------------------------------------------------------------|
B|-----------------------------------------------------------------|
G|-----------------------------------------------------------------|
D|-------------2------4------6------9------9-----------------------|
A|-------------2 x16--4 x16--6 x16--9 x8---9 x8--------------------|
D|-------------2------4------6------9------9-----------------------|
  PM           .........................

               (What are we waiting for)
E|-----------------------------------------------------------------|
B|-----------------------------------------------------------------|
G|-----------------------------------------------------------------|
D|-------------2------4------6------9------------------------------|x2
A|-------------2 x16--4 x16--6 x16--9 x16--------------------------|
D|-------------2------4------6------9------------------------------|

E|-----------------------------------------------------------------|
B|---*end on*------------------------------------------------------|
G|-----------------------------------------------------------------|
D|----2~~~~--------------------------------------------------------|
A|----2~~~~--------------------------------------------------------|
D|----2~~~~--------------------------------------------------------|




			Guitar One

E|-----------------------------------------------------------------|
B|-----------------------------------------------------------------|
G|-----------------------------------------------------------------|
D|-------------6 6--6----6------2------4---------------------------|
A|-------------6 6--6----6 x32--2 x16--4 x16-----------------------|
D|-------------6 6--6----6------2------4---------------------------|

E|-----------------------------------------------------------------|
B|-----------------------------------------------------------------|
G|-----------------------------------------------------------------|
D|-------------6------2------4-------------------------------------|x2
A|-------------6 x32--2 x16--4 x16---------------------------------|
D|-------------6------2------4-------------------------------------|
  PM           ..................

	(What are we waiting for)
E|--------------14-------------------------------------------------|
B|--------11-12----12-11-12-14-12----------------------------------|
G|-----------------------------------------------------------------|x4
D|-----------------------------------------------------------------|
A|-----------------------------------------------------------------|
D|-----------------------------------------------------------------|

E|---------------14p11-------------14p11-------------14p11---------|
B|---14p11-12p11-------12p11-14p11-------12p11-14p11---------------|
G|-----------------------------------------------------------------|
D|-----------------------------------------------------------------|
A|-----------------------------------------------------------------|
D|-----------------------------------------------------------------|

E|----------------14p11--------------------------------------------|
B|----12p11-14p11-------12-----------------------------------------|
G|-----------------------------------------------------------------|
D|-----------------------------------------------------------------|
A|-----------------------------------------------------------------|
D|-----------------------------------------------------------------|

	(Slowly but surely...)
E|-----------------------------------------------------------------|
B|-----------------------------------------------------------------|
G|-----------------------------------------------------------------|
D|-------------6------9------2------4------------------------------|
A|-------------6 x16--9 x16--2 x16--4 x16--------------------------|
D|-------------6------9------2------4------------------------------|

	(Sooner or later)
E|--------------14-------------------------------------------------|
B|--------11-12----12-11-12-14-12----------------------------------|
G|-----------------------------------------------------------------|x4
D|-----------------------------------------------------------------|
A|-----------------------------------------------------------------|
D|-----------------------------------------------------------------|

E|---------------14p11-------------14p11-------------14p11---------|
B|---14p11-12p11-------12p11-14p11-------12p11-14p11---------------|
G|-----------------------------------------------------------------|
D|-----------------------------------------------------------------|
A|-----------------------------------------------------------------|
D|-----------------------------------------------------------------|

E|----------------14p11-------------14p11--------------------------|
B|----12p11-14p11-------12p11-14p11-------14p11-12-----------------|
G|-----------------------------------------------------------------|
D|-----------------------------------------------------------------|
A|-----------------------------------------------------------------|
D|-----------------------------------------------------------------|

	(There's something that's been calling me)
E|-----------------------------------------------------------------|
B|-----------------------------------------------------------------|
G|-----------------------------------------------------------------|
D|-------------6------2------4------4 4---4 4 4--------------------|
A|-------------6 x32--2 x16--4 x10--4 4---4 4 4--------------------|
D|-------------6------2------4------4 4---4 4 4--------------------|
  PM           ................

E|-----------------------------------------------------------------|
B|-----------------------------------------------------------------|
G|-----------------------------------------------------------------|
D|-------------6------2------4-------------------------------------|
A|-------------6 x32--2 x16--4 x8--*Pull off slowly* --------------|
D|-------------6------2------4-------------------------------------|
  PM           ..................

	(What are we waiting for)
E|--------------14-------------------------------------------------|
B|--------11-12----12-11-12-14-12----------------------------------|
G|-----------------------------------------------------------------|x4
D|-----------------------------------------------------------------|
A|-----------------------------------------------------------------|
D|-----------------------------------------------------------------|

E|---------------14p11-------------14p11-------------14p11---------|
B|---14p11-12p11-------12p11-14p11-------12p11-14p11---------------|
G|-----------------------------------------------------------------|
D|-----------------------------------------------------------------|
A|-----------------------------------------------------------------|
D|-----------------------------------------------------------------|

E|----------------14p11--------------------------------------------|
B|----12p11-14p11-------12-----------------------------------------|
G|-----------------------------------------------------------------|
D|-----------------------------------------------------------------|
A|-----------------------------------------------------------------|
D|-----------------------------------------------------------------|

	(Slowly but surely...)
E|-----------------------------------------------------------------|
B|-----------------------------------------------------------------|
G|-----------------------------------------------------------------|
D|-------------6------9------2------4------------------------------|
A|-------------6 x16--9 x16--2 x16--4 x16--------------------------|
D|-------------6------9------2------4------------------------------|

	(Sooner or later)
E|--------------14-------------------------------------------------|
B|--------11-12----12-11-12-14-12----------------------------------|
G|-----------------------------------------------------------------|x4
D|-----------------------------------------------------------------|
A|-----------------------------------------------------------------|
D|-----------------------------------------------------------------|

E|---------------14p11-------------14p11-------------14p11---------|
B|---14p11-12p11-------12p11-14p11-------12p11-14p11---------------|
G|-----------------------------------------------------------------|
D|-----------------------------------------------------------------|
A|-----------------------------------------------------------------|
D|-----------------------------------------------------------------|

E|----------------14p11-------------14p11--------------------------|
B|----12p11-14p11-------12p11-14p11-------14p11-12-----------------|
G|-----------------------------------------------------------------|
D|-----------------------------------------------------------------|
A|-----------------------------------------------------------------|
D|-----------------------------------------------------------------|


     There's really not much more to the lead part after this



Lyrics:

We're staring down constantly
With palms open and resting feet
Glancing up once and a while
To find some sense of reconcile

Open our eyes to see what's left
Looking for just one sign of breath
As soon as we think its okay
We'll head our separate ways

What are we waiting for
There's knocking at our door

Chorus:
Slowly but surely I'm turning this around
But there is something that I haven't found
Sooner or later you will be finding out
Sitting there waiting isn't so safe and sound

There's something that's been calling me
I feel that I'm still incomplete
Without knowing what I expect
There's no way that I can perfect

We hesitate with every step
Just one step closer to our death
We're anxious just to take a glance
This could be our last chance

What are we waiting for
There's knocking at our door

Chorus

Sitting there waiting isn't so safe and sound

What are we waiting for
There's knocking at our door

What are we waiting for
Sitting there waiting isn't so safe and sound (what are we waiting for)
Sooner or later isn't so safe and sound
There's knocking at our door

What are we waiting for
There's knocking at our door
comments
We did not receive enough feedback on this tab! Please rate:
print report bad tab
1 2 3 4 5
I want to post or [tab]
guest
You may want to rate the tab now too:
select rating
Please do not post tabs as comments. Select "correction" instead!