Oops, an error
Loading. Please wait.

Cry Out To Jesus Tab

7,621 views 1 this week
no commentswrite comment
1 2 3 4 5
accurate
x 2
Autoscroll
+/-
esc
set tempo
stop
Hey! There's an official Ultimate Guitar app which is ideal
for learning songs when you're away from computer. Get the app
WARNING: You are trying to view
                                    content from Ultimate-Guitar.com
                                    in an unauthorized application,
                                    which is prohibited.

                                    Please use an official Ultimate
                                    Guitar Tabs application for iPhone,
                                    iPad or Android to access legitimate
                                    chords, guitar, bass, and drum tabs
                                    from Ultimate-Guitar.com database.

                                    Type "ultimate guitar tabs" in Apple
                                    App Store's or Android Market's
                                    search to find the application.
Cry Out to Jesus
Third Day
Wherever you Are
Gtr I (E A D G B E) – Mark Lee
Gtr II (E A D G B E) – Brad Lee
Intro: Piano transcribed for guitar 
4/4
  Gtr I
   E  E  E  E  E  E    E  E  E  E  E  E
|-------------------|-------------------|
|-12-13----15-12----|-12-13----15-12----|
|-------12-------12-|-------12-------12-|
|-------------------|-------------------|
|-------------------|-------------------|
|-------------------|-------------------|
|
| Gtr II
|  E        E          E        E
|-------------------|--3----------------|
|--5--------3-------|-----------5-------|
|--5--------5-------|--5--------5-------|
|-------------------|-------------------|
|--3----------------|-------------------|
|-------------------|-------------------|


   E  E  E  E  E  E    E  E  E  E  E  E
|-------------------|-------------------|
|-12-13----15-12----|-12-13----15-12----|
|-------12-------12-|-------12-------12-|
|-------------------|-------------------|
|-------------------|-------------------|
|-------------------|-------------------|
|
|  E        E          E        E
|-------------------|-------------------|
|--5--------5-------|--5--------5-------|
|--5--------3-------|--5--------5-------|
|--3----------------|-------------------|
|-------------------|-------------------|
|-------------------|-------------------|


   E  E  E  E  E  E    E  E  E  E  E  E
|-------------------|-------------------|
|-12-13----15-12----|-12-13----15-12----|
|-------12-------12-|-------12-------12-|
|-------------------|-------------------|
|-------------------|-------------------|
|-------------------|-------------------|
|
|  E        E          E        E
|-------------------|--3----------------|
|--5--------3-------|-----------5-------|
|--5--------5-------|--5--------5-------|
|--7----------------|-------------------|
|-------------------|-------------------|
|-------------------|-------------------|


   E  E  E  E  E  E    E  E  E  E  E  E
|-------------------|--------------------|
|-12-------13-12----|-12-------13-12-----|
|----14----------12-|----14----------12--|
|-------12----------|-------12-----------|
|-------------------|--------------------|
|-------------------|--------------------|
|
|  E        E
|-------------------|--------------------|
|--3--------3-------|--------------------|
|--4--------4-------|--------------------|
|--5--------5-------|--------------------|
|-------------------|--------------------|
|-------------------|--------------------|


  E E E
|----------|
|-----3----|
|---2------|
|-4--------|
|----------|
|----------|

     
Gtr1 
  E  E             E          E E   E
|----0---|-------|-------|--------|-0---|
|----1---|-------|-------|------1-|-----|
|----0---|-------|-0-----|----2---|-----|
|--------|-------|-------|--------|-----|
|-3------|-------|-------|--------|-----|
|--------|-------|-------|--------|-----|


   E  E  E  E   E  E    E   E  E    E  E    E
|--------------------|-------------------|-------|
|-12-13----15--12----|-12----------13-13-|-12----|
|-------12--------12-|-----14------12-12-|-12----|
|--------------------|--------12---12-12-|-12----|
|--------------------|-------------------|-------|
|--------------------|-------------------|-------|


  E E  E E E    E E          E
|-------------|-----------|--------------|
|-1----1------|-1---------|-^1-----------|
|-0h2----0----|-0---------|-^2-----------|
|-3--------0--|-0h2-------|-^2-----------|
|-------------|-3---------|--------------|
|-------------|-----------|--------------|
|
|               E            E E E  E E
|-------------|-0---------|--0---0----0--|
|-------------|-----------|----1----1----|
|-------------|-----------|--------------|
|-------------|-----------|--------------|
|-------------|-----------|--------------|
|-------------|-----------|--------------|


   E                 E                            E E E E
|-----------------|-^3-----------------------|----------8-------------|
|-^0--------------|-^1-----------------------|--------8---------------|
|-^0--------------|-^2-----------------------|------9-----------------|
|-^0--------------|-^3-----------------------|---10-------------------|
|-----------------|--------------------------|------------------------|
|-----------------|--------------------------|------------------------|
|
|  E E E  E E        E E E E E E E E E E E E   E  E E E E E E E E E E E
|-----------------|--1-----1-----1-----1-----|-0------0-----0-----0------|
|--3---3----3-----|------1-----1-----1-----1-|------1-----1-----1-----1--|
|----4----4-------|----2-----2-----2-----2---|----0-----0-----0-----0----|
|-----------------|--------------------------|---------------------------|
|-----------------|--------------------------|---------------------------|
|-----------------|--------------------------|---------------------------|


                   E E E E                       E
|----------------|-------3---------|----------------|
|----------------|-----3-----------|----------------|
|----------------|---4-------------|-------------0--|
|----------------|-5---------------|----------------|
|----------------|-----------------|----------------|
|----------------|-----------------|----------------|
|
| E E E E E E      E E E E           E     E
|-0-----0--------|-------3---------|----------------|
|---1-----1------|-3---------------|-6-----5--------|
|-----2-----2----|---4-------------|-5-----5--------|
|----------------|-----5-----------|-7-----7--------|
|----------------|-----------------|-8-----8--------|
|----------------|-----------------|----------------|


  E               E E E      E E          E   E
|------------|-------------|----------|------------|
|-1----------|----1--------|-1--------|--^1--^3----|
|------------|------0------|-0h2------|--^2--^0----|
|------------|--------2----|-3--------|--^2--^0----|
|------------|-------------|----------|--^0--^x----|
|------------|-------------|----------|------^3----|
|
| E    E       E  E E E      E E          E   E
|------------|-0--0-1-0----|----------|--^0--------|
|-3----1-----|-1--1-1-1----|-1--------|--^1--^3----|
|-5----2-----|-0--0--------|-0h2------|--^2--^0----|
|-5----3-----|-------------|-3--------|--^2--^0----|
|------------|-------------|----------|--^0--^x----|
|------------|-------------|----------|------^3----|

Verse 2
  E             E   E         E
|------------|--3---0------|-------|
|-1----------|-------------|--1----|
|-0----------|-------------|-------|
|-2----------|-------------|-------|
|-3----------|-------------|-------|
|------------|-------------|-------|


  E   E       E    E           E                  E E
|-3---0-----|------------|-------------|---------------|
|-----------|-1----3-----|-----3-------|----------1-0--|
|-----------|------------|-------------|----------0-0--|
|-----------|------------|-------------|----------0-0--|
|-----------|------------|-------------|---------------|
|-----------|------------|-------------|---------------|
|
|     E E     E  E E       E   E E  E    E E E
|-----------|------------|-------------|---------------|
|-----5-6---|-5--5-5-----|-5---5-3-----|-6p5-3---------|
|-----5-6---|------------|----------5--|---------------|
|-----------|------------|-------------|---------------|
|-----------|------------|-------------|---------------|
|-----------|------------|-------------|---------------|


  E E                                         E   E   E   E
|-------------|-------------------------|-----3---1---0------------|
|-1h3---------|-------------------------|-----------------1--------|
|-0-----------|-------------------------|--------------------------|
|-0-----------|-------------------------|--------------------------|
|-------------|-------------------------|--------------------------|
|-------------|-------------------------|--------------------------|
|
|               E E E E E E E E E E E E   E E E E E E E E E E E E
|-------------|-0-0---0-0---0-0---0-0---|-0-0---0-0---0-0---0-1----|
|-------------|-----1-----1-----1-----1-|-----1-----1-----1-----1--|
|-------------|-------------------------|--------------------------|
|-------------|-------------------------|--------------------------|
|-------------|-------------------------|--------------------------|
|-------------|-------------------------|--------------------------|


          E E       E      E      E       E       E
|------------------------|-------^5-------3-----|-5----------------------|
|------------------------|-------^3-------3-----|-3----------------------|
|---------5h7-------7\---|-0-----^4-------------|-4----------------------|
|------------------------|-0-----^5-------------|-5----------------------|
|------------------------|-x--------------------|------------------------|
|------------------------|-3--------------------|------------------------|
|
| E E E E E E E E E E  E   E E E  E E E E E E E   E E E E E E E E E E E
|-0-0---0-0---0-0-0------|----------------------|------------------------|
|-----1-----1-------1--1-|-3-3----3-3---3-3---3-|-3---3-----3---3-3------|
|------------------------|-----0------0-----0---|---0---0-0---0-----0-0--|
|------------------------|----------------------|------------------------|
|------------------------|----------------------|------------------------|
|------------------------|----------------------|------------------------|

Chorus
  E              E   E E  E      E   E  E E
|-1-----------|----------------|---------------|
|-1-----------|-^1-----1-------|-----1--1h3----|
|-2-----------|-^0---0----0----|-2---2--2------|
|-3-----------|-^2-------------|-2-------------|
|-3-----------|-^3-------------|-0-------------|
|-1-----------|----------------|---------------|


   E   E   E       E     E       E     E
|----------------|-1-----1-----|-0----------|
|----------------|-1-----1-----|-3-----1----|
|-^0---2---0-----|-2-----------|-0-----0----|
|-^0---0---0-----|-3-----------|-2----------|
|-^x-------------|-3-----------|-3----------|
|-^3-------------|-1-----------|------------|


  E     E        E  E   E  E     E
|--------------|---------------|-1-----------------|
|-1-----1------|--------0--0---|-1-----------------|
|-2-----2------|-0--0---0--0---|-2-----------------|
|-2-----2------|-0--0---0--0---|-3-----------------|
|-0-----0------|-x--x---x--x---|-------------------|
|--------------|-3--3---3--3---|-------------------|
|
|                                PM-------------|
| E     E        E      E        E  E E   E  E  E
|-0-----0------|---------------|-------------------|
|-1-----1------|-3------3------|-------------------|
|-2-----2------|-0------0------|-------------------|
|-2-----2------|-0------0------|-------------------|
|-0-----0------|-x------x------|-3--3-3---3--3--3--|
|--------------|-3------3------|-1--1-1---1--1--1--|


  E  E  E  E   E E
|-3--1--1--0-----0-|----|
|-1--1--1--1---3-1-|----|
|-0--0--0--0---0-0-|----|
|-3--3--3--3---3-3-|----|
|------------------|----|
|------------------|----|

Bridge
                E                         E
|---------------0---------|---------------0----------|
|---------------0---------|--------------10----------|
|--------------14---------|--------------12----------|
|--------------12---------|--------------12----------|
|--------------12---------|--------------------------|
|-------------------------|--------------------------|
|
|  PM------|                 PM-----|
|  E   E    E   E    E       E   E   E    E    E
|-------------------------|--------------------------|
|-------------------------|--------------------------|
|--------------14--(14)\--|--------------12--(12)\---|
|-14--14---14--14--(14)\--|-12--12--12---12--(12)\---|
|-12--12---12--12--(12)\--|-10--10--10---10--(10)\---|
|-------------------------|--------------------------|


               E  E  E    E E          E E    E       E           E
|--------------0-------|---------------------------|--------------0----------|
|--------------8--6----|---------------------------|--------------6----------|
|--------------5-----5-|--5------------5------5----|--------------5----------|
|----------------------|--5h7----------5h7---------|--------------7----------|
|----------------------|--8------------8-----------|--0----------------------|
|----------------------|---------------------------|-------------------------|
|
|  PM-----|               PM------|                   PM-----|
|  E   E   E   E          E    E   E   E      E       E   E   E   E     E
|----------------------|---------------------------|-------------------------|
|----------------------|---------------------------|-------------------------|
|----------------------|--------------10----(10)/--|-------------14---(14)\--|
|-------------10-------|-10---10--10--10----(10)/--|-14--14--14--14---(14)\--|
|-10--10--10--10-------|--8----8---8---8-----(8)/--|-12--12--12--12---(12)\--|
|--8---8---8---8-------|---------------------------|-------------------------|


            E              E  E E E    E
|--------------------|--------0-----|-----------|
|-----------3--------|-----6----5---|--6--------|
|-----------0--------|------------5-|--5--------|
|-----------0--------|--------------|--7--------|
|--------------------|--------------|-----------|
|--------------------|--------------|-----------|
|
|  PM---|
|  E  E  E  E   E       E     E        E   E
|--------------------|--------------|-----------|
|--------------------|--------------|-----------|
|----------12-(12)\--|-10----10-----|-10--10----|
|-12-12-12-12-(12)\--|-10----10-----|-10--10----|
|-10-10-10-10-(10)\--|--8-----8-----|--8---8----|
|--------------------|--------------|-----------|


         E   E  E      E
|-------------------|-----------|----|
|--------8---6--5---|--6--------|----|
|--------5---5--5---|--5--------|----|
|-------------------|-----------|----|
|-------------------|-----------|----|
|-------------------|-----------|----|
|
|  E     E             E
|-------------------|-----------|----|
|-------------------|-----------|----|
|-10----10----------|-10--------|----|
|-10----10----------|-10--------|----|
|--8-----8----------|--8--------|----|
|-------------------|-----------|----|

outro
  E      E       E      E        E      E
|--------------|-3-------------|-------------|
|-1------0-----|-1------1------|-1------0----|
|-2------0-----|-2------0------|-2------0----|
|-2------0-----|-3------3------|-2------0----|
|--------------|---------------|-------------|
|--------------|---------------|-------------|


  E      E       E     E         E
|-3------------|---------------|------|
|-1------------|-1-----0-------|------|
|-2------0-----|-2-----0-------|-2----|
|-3------------|-2-----0-------|-3----|
|--------------|-0-----x-------|-3----|
|--------------|-------3-------|-1----|
comments
We did not receive enough feedback on this tab! Please rate:
print report bad tab
1 2 3 4 5
I want to post or [tab]
guest
You may want to rate the tab now too:
select rating
Please do not post tabs as comments. Select "correction" instead!