Oops, an error
Loading. Please wait.

Tunnel Tab

ver1
ver1

Solo

Whole song

More versions @911Tabs.com
6,116 views 3 this week
no commentswrite comment
1 2 3 4 5
excellent!
x 4
Autoscroll
+/-
esc
set tempo
stop
Contributor
Difficulty
intermediate
Hey! There's an official Ultimate Guitar app which is ideal
for learning songs when you're away from computer. Get the app
WARNING: You are trying to view
                                    content from Ultimate-Guitar.com
                                    in an unauthorized application,
                                    which is prohibited.

                                    Please use an official Ultimate
                                    Guitar Tabs application for iPhone,
                                    iPad or Android to access legitimate
                                    chords, guitar, bass, and drum tabs
                                    from Ultimate-Guitar.com database.

                                    Type "ultimate guitar tabs" in Apple
                                    App Store's or Android Market's
                                    search to find the application.
Song: Tunnel
By: Third Day
tabbed by gareth ritchie!!!!!(big_g_r@hotmail.co.uk)

All guitars capo 2nd fret (tabs and chords relative to capo)
Acoustic guitar plays chords

 4/4

Intro:        [==================A===================
  Gtr I	   Em
   <
|------------||-------------------------------------|
|------------||o------------------------------------|
|------------||--9---9-9-9-9-9-(9)-9-9-9-x-11-11-11-|
|------------||--x---x-x-x-x-x-(x)-x-x-x-x--x--x--x-|
|-<7>--------||o-7---7-7-7-7-7-(7)-7-7-7-x--9--9--9-|
|------------||-------------------------------------|
|
| Gtr II
|  <          [==================A===================
|------------||-------------------------------------|
|------------||o------------------------------------|
|------------||-------------------------------------|
|------------||--7h9---7h9-7h9-(9)-7h9---9--9-------|
|-<7>--------||o-7-7---7-7-7-7-(7)-7-7---7--7--7----|
|------------||--------------------------------0----|

========================A=======================] (end of intro part A)
 G
|-----------------------------------------------|
|-----------------------------------------------|
|-11/12-12-12-12-12-12--12--12-12-12-12-12-x-14-|
|--x--x--x--x--x--x--x---x---x--x--x--x--x-x--x-|
|--9/10-10-10-10-10-10--10--10-10-10-10-10-x-12-|
|-----------------------------------------------|
|
|=======================A=======================]
|-----------------------------------------------|
|--0--0-----0--0--0--0-------0--0-----0--0-x--x-|
|-11/12----11/12-11/12-(12)-11/12----11/12-x--x-|
|--0--0-----0--0--0--0--(0)--0--0-----0--0-x--x-|
|--9/10-----9/10--9/10-(10)--9/10-----9/10-x--x-|

 Am
|--------------------------------------------|
|--------------------------------------------|
|-14----14-14-14-14-14-(14)-14--x-x-14-x-x-x-|
|--x-----x--x--x--x--x---x---x--x-x--x-x-x-x-|
|-12----12-12-12-12-12-(12)-12--x-x-12-x-x-x-|
|--------------------------------------------|
|
|
|--0--0-----0--0--0--0--(0)--0--0----0-0-0-0-|
|--0--0-----0--0--0--0--(0)--0--0----0-0-0-0-|
|-12/14----12/14-12/14-(14)-12/14------------|
|--x--x-----x--x--x--x--(x)--x--x------------|
|-10/12----10/12-10/12-(12)-10/12------------|
|--------------------------------------------|

 Am
|-------------------------------------------------||
|------------------------------------------------o||
|-17----17-17-17-17----17---x--19----19-19-x-x-x--||
|--x-----x--x--x--x-----x---x---x-----x--x-x-x-x--||
|-15----15-15-15-15----15---x--17----17-17-x-x-x-o||
|-------------------------------------------------||
|
|
|--0--0-----0--0-----0--0--(0)--0--0-----0-0-0----||
|--0--0-----0--0-----0--0--(0)--0--0-----0-0-0---o||
|-12/14----12/14----12/14-(14)-12/14-----------0--||
|--x--x-----x--x-----x--x--(x)--x--x-----------0--||
|-10/12----10/12----10/12-(12)-10/12-------------o||
|-------------------------------------------------||


Verse 1: (Gtr I plays with tremolo) (Gtr II strums those chord shapes)

 Em              G              Am             C
 Gtr I
|--------------|--------------|--------------|--------------|
|--------------|--------------|--------------|--------------|
|--------------|--------------|--------------|--------------|
|--------------|--------------|--------------|--------------|
|--------------|--------------|--------------|--------------|
|--------------|--------------|--------------|--------------|
|

|Gtr II
|-0------------|-0------------|-0------------|-0------------|
|-0------------|-0------------|-1------------|-0------------|
|-0------------|-0------------|-4------------|-0------------|
|-2------------|-0------------|-2------------|-2------------|
|--------------|-2------------|-0------------|-3------------|
|--------------|--------------|--------------|--------------|

 Em              G              Am             C
|--------------|--------------|--------------|--------------|
|-0-0-(0)------|-0-0-(0)------|-1-1-(1)------|-1-1-(1)------|
|-0-0-(0)------|-0-0-(0)------|-2-2-(2)------|-0-0-(0)------|
|-2-2-(2)------|-0-0-(0)------|-2-2-(2)------|-2-2-(2)------|
|-2-2-(2)------|-2-2-(2)------|-0-0-(0)------|-3-3-(3)------|
|-0-0-(0)------|-3-3-(3)------|--------------|--------------|
|
|
|-0------------|-0------------|-0------------|-0------------|
|-0------------|-0------------|-1------------|-0------------|
|-0------------|-0------------|-4------------|-0------------|
|-2------------|-0------------|-2------------|-2------------|
|--------------|-2------------|-0------------|-3------------|
|--------------|--------------|--------------|--------------|

Pre-Chorus:
  D                                      Cmaj7
 Gtr I
|-------------------|-------------------|-----------------|---------------------|
|-------3-(3)-3-3---|-------3-(3)-------|------1-(1)-3--1-|-(1)---3-1---3-1-----|
|---2-2-----------2-|---2-2-------2--2--|---0-------------|-----0-----0-----0---|
|-0-----------------|-0-----------------|-----------------|---------------------|
|-------------------|-------------------|-3---------------|---------------------|
|-------------------|-------------------|-----------------|---------------------|
|
|Gtr II
|---2---3-(3)-2-----|---2---3-(3)-2-(2)-|---0--3-(3)-0----|---------------------|
|-3---------------3-|(3)----------------|-1-------------0-|-(0)-------0h1p0-----|
|-------------------|-------------------|-----------------|---------------------|
|-------------------|-------------------|-----------------|---------------------|
|-------------------|-------------------|-----------------|---------------------|
|-------------------|-------------------|-----------------|---------------------|


Chorus 1:
  G        Em7       Dsus4     Cadd9
 Gtr I						x2
|---------|---------|---------|---------|
|-3-------|-3-------|-3-------|-3-------|
|-4-------|-4-------|-2-------|-5-------|
|-5-------|-2-------|-4-------|-5-------|
|---------|---------|-5-------|-3-------|
|---------|---------|---------|---------|
| (guitars I and II strum chord shapes)
|
|Gtr II						x2
|-3-------|-3-------|-3-------|-3-------|
|-3-------|-3-------|-3-------|-3-------|
|-0-------|-0-------|-2-------|-0-------|
|-0-------|-2-------|-0-------|-2-------|
|-2-------|-2-------|---------|-3-------|
|-3-------|-0-------|---------|---------|
(end of chorus)

 Am        G             C
 Gtr I
|----------------------|----------------------|
|-1--1-1-1-3-3-3-3-3-3-|-3-3-3-3-3-3-3-3-3-3--|
|-2--2-2-2-0-0-0-0-0-0-|-5-5-5-5-5-5-5-5-5-5--|
|-2--2-2-2-0-0-0-0-0-0-|-5-5-5-5-5-5-5-5-5-5--|
|----------------------|----------------------|
|----------------------|----------------------|
|Gtr II
|----------------------|----------------------|
|----1-0---------3p0---|-1-------0h1p0-(0)----|
|-2--------0-----------|----------------------|
|----------------------|------2---------------|
|----------------------|----------------------|
|----------------------|----------------------|

Verse 2: (repeat verse 1 except along with this Gtr III tab)

 Em                               G
 Gtr III
|--------------------------------|-----------------------------|
|--------------------------------|-----------------------------|
|-9-9-9-9-9-(9)-9-9-9-x-11-11-11-|-x-7-7-7-7-7-(7)-7-7-7-7-x-5-|
|-x-x-x-x-x--x--x-x-x-x--x--x--x-|-x-x-x-x-x-x--x--x-x-x-x-x-x-|
|-7-7-7-7-7-(7)-7-7-7-x--9--9--9-|-x-5-5-5-5-5-(5)-5-5-5-5-x-3-|
|--------------------------------|-----------------------------|

  Am                            C
|-----------------------------|-----------------------------|
|-----------------------------|-----------------------------|
|-5-5-5-5-5-(5)-5-5-5-5-5-x-4-|-4/5-5-5-5-5-(5)-5-5-5-5-5/9-|
|-x-x-x-x-x--x--x-x-x-x-x-x-x-|-x-x-x-x-x-x--x--x-x-x-x-x-x-|
|-3-3-3-3-3-(3)-3-3-3-3-3-x-2-|-2/3-3-3-3-3-(3)-3-3-3-3-3/7-|
|-----------------------------|-----------------------------|

  Em                             G
|------------------------------|---------------------------|
|------------------------------|---------------------------|
|-9-9-9-9-(9)-9-9-9-x-11-11-11-|-x-7-7-7-7-7-(7)-7-7-7-7-7-|
|-x-x-x-x--x--x-x-x-x--x--x--x-|-x-x-x-x-x-x--x--x-x-x-x-x-|
|-7-7-7-7-(7)-7-7-7-x--9--9--9-|-x-5-5-5-5-5-(5)-5-5-5-5-5-|
|------------------------------|---------------------------|

  Am                            C
|-----------------------------|-------------------------------|
|-----------------------------|-------------------------------|
|-2-2-2-2-2-(2)-2-2-2-x-4-4-4-|-4s5-5-5-5-5-(5)-5-5-5-5-5-x-5-|
|-x-x-x-x-x--x--x-x-x-x-x-x-x-|-x-x-x-x-x-x--x--x-x-x-x-x-x-x-|
|-0-0-0-0-0-(0)-0-0-0-x-2-2-2-|-2s3-3-3-3-3-(3)-3-3-3-3-3-x-3-|
|-----------------------------|-------------------------------|

Pre-Chorus:
 D                                           Cmaj7
 Gtr I
|----------------|----------------------|-----------------|---------------------|
|------------3--3|(3)-----------3----3--|----1-3-(3)-1---3|-(3)-1---3-(3)-1-----|
|--2---2-(2)-----|----2---2-(2)---2-(2)\|--0-----------0--|-------0---------0---|
|0---0-----------|------0---------------|-----------------|---------------------|
|----------------|----------------------|3----------------|---------------------|
|----------------|----------------------|-----------------|---------------------|
|
|Gtr II
|--2---3-(3)-2---|----2---3-(3)-2----2\|--0---3-(3)-0-----|---------7-(7)-------|
|3---3----------3|(3)---3--------------|1---1-------------|-----8---------------|
|----------------|---------------------|------------------|-7h9---9-------------|
|----------------|---------------------|------------------|---------------------|
|----------------|---------------------|------------------|---------------------|
|----------------|---------------------|------------------|---------------------|


Repeat Chorus x2


(then this:)
 Am         G       C                  Am          G      D
 Gtr I
|-----------------|------------------|------------------|-2-0-(0)-----|
|----1-0-------3--|-----0h1p0-(0)----|----1-0-(0)----3--|-------------|
|-----------------|------------------|------------------|---2-2-(2)/4-|
|-----------------|---2--------------|------------------|0------------|
|-0---------------|-3----------------|-0----------------|-------------|
|-----------3-----|------------------|-------------3----|-------------|
|Gtr II
|-----------------|------------------|------------------|-----2-0-(0--|
|-----1-0-----3p0-|-1---0h1p0-(0)----|-----1-0-(0)---3--|-------------|
|-----------------|------------------|------------------|---2—2---2/4-|
|---2-------------|---2--------------|---2--------------|-0-----------|
|-0---------------|------------------|-0----------------|-------------|
|-----------3-----|------------------|-------------3----|-------------|
Guitar Solo:
 Esus4                              G
 Gtr II
|----------------------------------|--------------------------------------------|
|----------------------------------|--------------------------------------------|
|-9-9-9-9-9-9-(9)-9-9-9-x-11-11-11-|-11/12-12-12-(12)-12-12--12-12-12-x-x-x-x---|
|-x-x-x-x-x-x--x--x-x-x-x--x--x--x-|--x--x--x--x---x---x--x---x--x--x-x-x-x-x---|
|-7-7-7-7-7-7-(7)-7-7-7-x--9--9--9-|--9/10-10-10-(10)-10-10--10-10-10-x-x-x-x---|
|----------------------------------|--------------------------------------------|
|
|Gtr I
|----------------------------------|---------9----------------------------------|
|----------------------------------|-------------------12---------10------------|
|----------------------------------|-11p9-11---11p9-11----11p9-11----11p9----9--|
|-2--------------------------------|--------------------------------------11----|
|----------------------------------|--------------------------------------------|
|----------------------------------|--------------------------------------------|
|
|Gtr III
|----------------------------------|-3----3----(3)---3----3----3----3----3------|
|----------------------------------|-3----3----(3)---3----3----3----3----3------|
|----------------------------------|-0----0----(0)---0----0----0----0----0------|
|-2--4--2--4--2--4-(4)-2--4--4--4--|-0----0----(0)---0----0----0----0----0------|
|-2--2--2--2--2--2-(2)-2--2--2--2--|--------------------------------------------|
|----------------------------------|--------------------------------------------|

  Am						  Am
|-----------------------------------|---------------------------------------|
|-----------------------------------|---------------------------------------|
|-----------------------------------|---------------------------------------|
|-7--7--7--7--7--(7)--7--7--7-7-x-x-|-5/7--7--7--7--7--7--(7)-7-7-7-7-x-x---|
|-x--x--x--x--x---x---x--x--x-x-x-x-|-x-x--x--x--x--x--x---x--x-x-x-x-x-x---|
|-5--5--5--5--5--(5)--5--5--5-5-x-x-|-3/5--5--5--5--5--5--(5)-5-5-5-5-x-x---|
|
|-----------------------------------|---------------12-(12)-----------------|
|-12/14-12-(12)-10-(10)----10-12p10-|-12s14-12-(12)---------12s14-12-(12)---|
|-----------------------11----------|---------------------------------------|
|-----------------------------------|---------------------------------------|
|-----------------------------------|---------------------------------------|
|-----------------------------------|---------------------------------------|
|
|--------0------(0)----------0------|-(0)--------0--0--0--(0)--0------0-----|
|--------1------(1)----------0------|-(0)--------1--1--1--(1)--0------0-----|
|--------2------(2)----------2------|-(2)--------2--2--2--(2)--2------2-2---|
|--------2------(2)----------2------|-(2)--2--2--2--2--2--(2)--2-2-2--2-----|
|-0------0------(0)-----0----0------|-(0)--0--0--0--0--0--(0)----0-0--0-----|
|-----------------------------------|---------------------------------------|

 Esus4
|-------------------------------------------|
|-------------------------------------------|
|-9--9--9--9--9--9--(9)--9--9--9-x-11-11-11-|
|-x--x--x--x--x--x---x---x--x--x-x--x--x--x-|
|-7--7--7--7--7--7--(7)--7--7--7-x--9--9--9-|
|-------------------------------------------|
|
|---------9---------------------------------|
|-------------------12---------10-----------|
|-11p9-11---11p9-11----11p9-11----11p9----9-|
|--------------------------------------11---|
|-------------------------------------------|
|-------------------------------------------|
|
|-------------------------------------------|
|-------------------------------------------|
|-------------------------------------------|
|-2---4---2---4---2---4--(4)--2---4---4---4-|
|-2---2---2---2---2---2--(2)--2---2---2---2-|
|-------------------------------------------|
  G
|-----------------------------------------------|
|-----------------------------------------------|
|-11/12--12--12--(12)--12--12--12--12--12-x-x-x-|
|--x--x---x---x----x----x---x---x---x---x-x-x-x-|
|--9/10--10--10--(10)--10--10--10--10--10-x-x-x-|
|-----------------------------------------------|
|
|-----------------------------------------------|
|---------10---------10-12---------10-----------|
|-11p9-------11p9-11-------11-(11)----11p9----9-|
|------11----------------------------------11---|
|-----------------------------------------------|
|-----------------------------------------------|
|
|-3-----3----(3)----3-----3-----3-----3-----3---|
|-3-----3----(3)----3-----3-----3-----3-----3---|
|-0-----0----(0)----0-----0-----0-----0-----0---|
|-0-----0----(0)----0-----0-----0-----0-----0---|
|-----------------------------------------------|
|-----------------------------------------------|


Am
|------------------------------------|
|------------------------------------|
|------------------------------------|
|-7--7--7--7--7--(7)--7--x-5-5-x-5-x-|
|-x--x--x--x--x---x---x--x-x-x-x-x-x-|
|-5--5--5--5--5--(5)--5--x-3-3-x-3-x-|
|
|-----------------------------------|
|-12s14-12-(12)-10-(10)----10-12p10-|
|-----------------------11----------|
|-----------------------------------|
|-----------------------------------|
|-----------------------------------|
|
|--------0------(0)-----------0-----|
|--------1------(1)-----------0-----|
|--------2------(2)-----------2-----|
|--------2------(2)-----------2-----|
|-0------0------(0)-----0-----0-----|
|-----------------------------------|

 Am
|-----------------------------------|
|-----------------------------------|
|-----------------------------------|
|-5/7--7--7--7--7-7-(7)-7-7-x-x-x-x-|
|-x-x--x--x--x--x-x--x--x-x-x-x-x-x-|
|-3/5--5--5--5--5-5-(5)-5-5-x-x-x-x-|
|
|---------------12-(12)----12h14-12-|
|-12s14-12-(12)---------14----------|
|-----------------------------------|
|-----------------------------------|
|-----------------------------------|
|-----------------------------------|
|
|----------0--0--0--(0)--0-----0----|
|----------1--1--1--(1)--0-----0----|
|----------2--2--2--(2)--2-----2----|
|-2--2--2--2--2--2--(2)--2--2--2----|
|-0--0--0--0--0--0--(0)-----0--0----|
|-----------------------------------|
(end of solo)


 D                                     Cmaj7
 Gtr I
|------------------|------------------|-----------------|--------|
|------------------|------------------|---------------0-|-(0)----|
|-------0-(0)------|--------0-(0)-----|------0-(0)------|--------|
|---4---------4----|-----4--------4---|---2--------2----|--------|
|-5---5----------5-|-(5)--------------|-3---------------|--------|
|------------------|------------------|-----------------|--------|
|
|Gtr II
|------------------|------------------|-----------------|--------|
|------------------|------------------|-----------------|--------|
|------------------|------------------|-----------------|--------|
|------------------|------------------|-----------------|--------|
|------------------|------------------|-----------------|--------|
|------------------|------------------|-----------------|--------|

  Em           G              D                C
 Gtr I
|------------|--------------|---2------------|---0------------|
|------------|--------------|-3---3-0-(0)----|-1---1-0-(0)----|
|------------|--------------|----------------|----------------|
|------------|--------------|----------------|----------------|
|-------<7>--|-(<7>)--------|----------------|----------------|
|------------|--------------|----------------|----------------|
|
|Gtr II  (Gtr II strums chords)
|------------|-0------------|----------------|-0--------------|
|-0----------|-0------------|-3--------------|-1--------------|
|-0----------|-0------------|-2--------------|-0--------------|
|-0----------|-0------------|-0--------------|-2--------------|
|-2----------|-2------------|-0--------------|-3--------------|
|------------|--------------|----------------|----------------|

Chorus x3

  Am         G           C
 Gtr I
|----------------------|-------------------------|
|-1--1-1-1-x-x-3-3-3-3-|-x-x-3-3-3-3-x-x-3-3-3-3-|
|-2--2-2-2-x-x-0-0-0-0-|-x-x-5-5-5-5-x-x-5-5-5-5-|
|-2--2-2-2-x-x-0-0-0-0-|-x-x-5-5-5-5-x-x-5-5-5-5-|
|----------------------|-------------------------|
|----------------------|-------------------------|
|
|Gtr II
|----------------------|-------------------------|
|------1-0--(0)---3--0-|-1-----0--1--0--(0)------|
|-2--------------0-----|-------------------------|
|---2------------------|----2--------------------|
|----------------------|-------------------------|
|----------------------|-------------------------|

  Am       G             D
|----------------------|-------------------------|
|-1--1-1-1-x-x-3-3-3-3-|-x-x-3-3-3-3-x-x-3-3-3-3-|
|-2--2-2-2-x-x-0-0-0-0-|-x-x-2-2-2-2-x-x-2-2-2-2-|
|-2--2-2-2-x-x-0-0-0-0-|-x-x-4-4-4-4-x-x-4-4-4-4-|
|----------------------|-------------------------|
|----------------------|-------------------------|
|
|
|----------------------|-------2----------5------|
|------1-0--(0)-----3--|----------5---(5)--------|
|----2-----------0-----|-----2-------------------|
|----------------------|-0-----------------------|
|-0--------------------|-------------------------|
|----------------------|-------------------------|

  Am       G             C
|----------------------|-------------------------|
|-1--1-1-1-x-x-3-3-3-3-|-x-x-3-3-3-3-x-x-3-3-x-x-|
|-2--2-2-2-x-x-0-0-0-0-|-x-x-5-5-5-5-x-x-5-5-x-x-|
|-2--2-2-2-x-x-0-0-0-0-|-x-x-5-5-5-5-x-x-5-5-x-x-|
|----------------------|-------------------------|
|----------------------|-------------------------|
|
|
|----------------------|------3--0--(0)----------|
|------1--0-(0)----3p0-|------------------0h1p0--|
|----2----------0------|-------------------------|
|----------------------|----2--------------------|
|-0--------------------|-3-----------------------|
|----------------------|-------------------------|


Outro: All guitars play intro part A, then strum Am once
comments
print report bad tab
I want to post or [tab]
guest
You may want to rate the tab now too:
select rating
Please do not post tabs as comments. Select "correction" instead!