Oops, an error
Loading. Please wait.

Tunnel Tab

ver2
ver2

Solo

Whole song

More versions @911Tabs.com
1,667 views 1 this week
no commentswrite comment
1 2 3 4 5
excellent!
x 1
Autoscroll
+/-
esc
set tempo
stop
Contributor
Tabbers playing skills
intermediate +
WARNING: You are trying to view
                                    content from Ultimate-Guitar.com
                                    in an unauthorized application,
                                    which is prohibited.

                                    Please use an official Ultimate
                                    Guitar Tabs application for iPhone,
                                    iPad or Android to access legitimate
                                    chords, guitar, bass, and drum tabs
                                    from Ultimate-Guitar.com database.

                                    Type "ultimate guitar tabs" in Apple
                                    App Store's or Android Market's
                                    search to find the application.
-------------------------------------------------------------------------------
                              TUNNEL – Third Day
-------------------------------------------------------------------------------
Tabbed by: 0GibsonLesPaul0


Email: -----


Tuning: Standard
_______________________________________________________________________________




INTRO | 2X

   F#             Ab   A               B                       D     E
e|---------------------------------------------------------------------------|
B|---------------------------------------------------------------------------|
G|-6-6-6-6-6-6-6-6-8-8/9-9-9-9-9-9-9-9-11-11-11-11-11-11-11-11-14-14/16-16---|
D|-4-4—4-4-4-4-4-4-6-6/7-7-7-7-7-7-7-7-9--9--9--9—-9—-9—-9—-9--12-12/14-14---|
A|---------------------------------------------------------------------------|
E|---------------------------------------------------------------------------|


VERSE | 1X

  F#    A    B    D                F#   Ab   A5   B5   D5
e|-2----0----2----2-----------------------------------------------------------|
B|-2----2----2----3------------------------------------3----------------------|
G|-3----2----4----2-------------------------------4----2----------------------|
D|-4----2----4----0-----------------4----6-/-7----4----0----------------------|
A|-4----0----2----------------------4----6-/-7----2---------------------------|
E|-2----------------(bass slides)---2----4-/-5--------------------------------|


PRE CHORUS | 1X

   (guitar 1)

  E5                     D5
e|---------------------------------------------------------------------------|
B|---------------------------------------------------------------------------|
G|-9----------------------7--------------------------------------------------|
D|-9----------------------7--------------------------------------------------|
A|-7----------------------5--------------------------------------------------|
E|---------------------------------------------------------------------------|
 |
 |
 | (guitar 2)
 |
 | N.C.
e|---------------------------------------------------------------------------|
B|-9-10-9~----/9-10-9~----\7-10-7~-------------------------------------------|
G|---------------------------------6~-6-6h7p6~-\2~-(hold into chorus)--------|
D|---------------------------------------------------------------------------|
A|---------------------------------------------------------------------------|
E|---------------------------------------------------------------------------|




CHORUS | 2X

  A5   A/G#  F#  E5   D5
e|---------------------------------------------------------------------------|
B|---------------------------------------------------------------------------|
G|----------------9----7-----------------------------------------------------|
D|-7----7----4----9----7-----------------------------------------------------|
A|-7----7----4----7----5-----------------------------------------------------|
E|-5----4----2---------------------------------------------------------------|


PRE VERSE | 1X

  B    Ab   A
e|---------------------------------------------------------------------------|
B|---------------------------------------------------------------------------|
G|-4----6----7---------------------------------------------------------------|
D|-4----6----7---------------------------------------------------------------|
A|-2----4----5---------------------------------------------------------------|
E|---------------------------------------------------------------------------|
 |
 |
 | (guitar 2)
 |
 |N.C.
e|---------------------------------------------------------------------------|
B|---------------------------------------------------------------------------|
G|---7-6—--9---6-6h7p6~------------------------------------------------------|
D|-9-----7-------------------------------------------------------------------|
A|---------------------------------------------------------------------------|
E|---------------------------------------------------------------------------|


VERSE | 2X


e|---------------------------------------------------------------------------|
B|----------------------3----------------------------------------------------|
G|-----------------4----2----------------------------------------------------|
D|-4----6-/-7------4----0----------------------------------------------------|
A|-4----6-/-7------2---------------------------------------------------------|
E|-2----4-/-5----------------------------------------------------------------|


PRE CHORUS | 1X

   (guitar 1)

  E5                     D5
e|---------------------------------------------------------------------------|
B|---------------------------------------------------------------------------|
G|-9----------------------7--------------------------------------------------|
D|-9----------------------7--------------------------------------------------|
A|-7----------------------5--------------------------------------------------|
E|---------------------------------------------------------------------------|
 |
 |
 |
 | (guitar 2)
 |
 | N.C.
e|---------------------------------------------------------------------------|
B|-9-10-9~----/9-10-9~----\7-10-7~-------------------------------------------|
G|---------------------------------6~-6-6h7p6~-\2~-(hold into chorus)--------|
D|---------------------------------------------------------------------------|
A|---------------------------------------------------------------------------|
E|---------------------------------------------------------------------------|


CHORUS | 2X

  A5   A/G#  F#  E5   D5
e|---------------------------------------------------------------------------|
B|---------------------------------------------------------------------------|
G|----------------9----7-----------------------------------------------------|
D|-7----7----4----9----7-----------------------------------------------------|
A|-7----7----4----7----5-----------------------------------------------------|
E|-5----4----2---------------------------------------------------------------|


PRE SOLO | 2X

  B    Ab   A
e|---------------------------------------------------------------------------|
B|---------------------------------------------------------------------------|
G|-4----6----7---------------------------------------------------------------|
D|-4----6----7---------------------------------------------------------------|
A|-2----4----5---------------------------------------------------------------|
E|---------------------------------------------------------------------------|
 |
 |
 | (guitar 2)
 |
 |N.C.
e|---------------------------------------------------------------------------|
B|---------------------------------------------------------------------------|
G|---7-6—--9---6-6h7p6~------------------------------------------------------|
D|-9-----7-------------------------------------------------------------------|
A|---------------------------------------------------------------------------|
E|---------------------------------------------------------------------------|


SOLO*

         *Play intro during solo. Start solo at G|-9-|
                                                D|-7-|
e|--------9------------------------------------------------------------------|
B|--------------------10-----10-------------12b13r12-10----10-10h12-12b13r12-|
G|-11-9-11---11-9-11------11---11-9---------------------11-------------------|
D|---------------------------------11-9--------------------------------------|
A|--------------------------------------11\----------------------------------|
E|---------------------------------------------------------------------------|

e|-12-9--------------9-------------------------------------------------------|
B|------12~--------------------10-----10------------------10-----------------|
G|-----------11-9-11---11-9-11------11---11-9-----------9----11-9------------|
D|-------------------------------------------11-9---9-11—---------11-9-11b13-|
A|-----------------------------------------------11--------------------------|
E|---------------------------------------------------------------------------|

e|-----------------------------------------------12h14-12h14~----------------|
B|--------------12b13r12-10----10-10h12-12b13r12-----------------------------|
G|-11-9---------------------11-----------------------------------------------|
D|-----11-9------------------------------------------------------------------|
A|----------11---------------------------------------------------------------|
E|---------------------------------------------------------------------------|
PRE CHORUS | 1X

   (guitar 1)

  E5                     D5
e|---------------------------------------------------------------------------|
B|---------------------------------------------------------------------------|
G|-9----------------------7--------------------------------------------------|
D|-9----------------------7--------------------------------------------------|
A|-7----------------------5--------------------------------------------------|
E|---------------------------------------------------------------------------|
 |
 |
 |
 | (guitar 2) [with effects]
 |
 | N.C.
e|---------------------------------------------------------------------------|
B|-9-10-9~----/9-10-9~----\7-10-7~-------------------------------------------|
G|---------------------------------6~-6-6h7p6~-\2~-(hold into chorus)--------|
D|---------------------------------------------------------------------------|
A|---------------------------------------------------------------------------|
E|---------------------------------------------------------------------------|


CHORUS | 4X

  A5   A/G#  F#  E5   D5
e|---------------------------------------------------------------------------|
B|---------------------------------------------------------------------------|
G|----------------9----7-----------------------------------------------------|
D|-7----7----4----9----7-----------------------------------------------------|
A|-7----7----4----7----5-----------------------------------------------------|
E|-5----4----2---------------------------------------------------------------|


PRE VERSE | 3X

  B    Ab   A
e|---------------------------------------------------------------------------|
B|---------------------------------------------------------------------------|
G|-4----6----7---------------------------------------------------------------|
D|-4----6----7---------------------------------------------------------------|
A|-2----4----5---------------------------------------------------------------|
E|---------------------------------------------------------------------------|
 |
 |
 | (guitar 2)
 |
 |N.C.
e|---------------------------------------------------------------------------|
B|---------------------------------------------------------------------------|
G|---7-6—--9---6-6h7p6~------------------------------------------------------|
D|-9-----7-------------------------------------------------------------------|
A|---------------------------------------------------------------------------|
E|---------------------------------------------------------------------------|

OUTRO | X


e|---------------------------------------------------------------------------|
B|---------------------------------------------------------------------------|
G|---------------4----7-----------------------------------------------------|
D|-4----6-/-7----4----7------------------------------------------------------|
A|-4----6-/-7----2----5------------------------------------------------------|
E|-2----4-/-5----------------------------------------------------------------|


| /  slide up
| \  slide down
| h  hammer-on
| p  pull-off
| ~  vibrato
| +  harmonic
| x  Mute note
===============================================================================

comments
We did not receive enough feedback on this tab! Please rate:
print report bad tab
1 2 3 4 5
I want to post or [tab]
guest
You may want to rate the tab now too:
select rating
Please do not post tabs as comments. Select "correction" instead!