Oops, an error
Loading. Please wait.

Japanese Ultraviolence In D Minor Tab

4,836 views 6 this week
5 commentsread comments
1 2 3 4 5
excellent!
x 3
add to favorites launch autoscroll
font size
0
reset
Autoscroll
+/-
esc
set tempo
stop
Contributor
WARNING: You are trying to view
                                    content from Ultimate-Guitar.com
                                    in an unauthorized application,
                                    which is prohibited.

                                    Please use an official Ultimate
                                    Guitar Tabs application for iPhone,
                                    iPad or Android to access legitimate
                                    chords, guitar, bass, and drum tabs
                                    from Ultimate-Guitar.com database.

                                    Type "ultimate guitar tabs" in Apple
                                    App Store's or Android Market's
                                    search to find the application.
-----------------------------------------------------------------
Japanese ultra violence in D Minor - ThisTownNeedsGuns
-----------------------------------------------------------------
Tabbed by: Elijah Bost
Tuning: D A D F# A E  (Song is entirely fingerpicked)
-------
Attention all. There may be a few missing and even extra guitar bass notes
throughout certain parts of the song due to a lot of them being inaudible or
unclear. I got all of the main melody and notes pretty close to perfect I’m
pretty sure. You’re also going to have to play along with the song and
possibly slow it down on windows media player to get the rhythm right. I put
extra spaces where there are slight pauses and such but there are a ton of
triplets and other random timing things that I don’t know how to demonstrate
on tablature. This is mostly in the last 30 seconds of the song.

Intro:    The intro melody is the same idea with slight variations throughout
until the very last transition to the first lead type section. These are most
of the variations and there wouldn’t be anything wrong with just learning one
because they are so similar. It also fades in so I didn’t put them all in
order because there are a ton of repeats.

These are in no particular order so just play whatever one and mix them up

E|------------------------------------------------------|
A|---------------------------------0---------------0----|
F#---3-----3-----3---3-----3---3-------3---3---3--------|
D|-------4-------------------4-------4-------4-------4--|
A|-0---5-----0-4---0---5-5-------5-5-----5-------5-5----|
D|------------------------------------------------------|

E|------------------------------------------------------|
A|---------------------------------0-------------0------|
F#---3-----3-----3---3-----3---3-------3-----3-------3--|
D|-------4-------------------4-------4-----4-------4----|
A|-0---5-----0-4---0---5-5-------5-5-----5-----5-5------|
D|------------------------------------------------------|

E|------------------------------------------------------|
A|---------------------------------0---------------0----|
F#---3-----3-----3---3-----3---3-------3-----3-------3--|
D|-------4-------------------4-------4-----4---4--------|
A|-0---5-----0-4---0---5-5-------5-5-----5-------5-5----|
D|------------------------------------------------------|

E|------------------------------------------------------|
A|---------------------------------0-------------0------|
F#---3-----3-----3---3-----3---3-----3---3---3----------|
D|-------4-------------------4-------------4-------4~---|
A|-0---5-----0-4---0---5-5-------5-5---5-------5-5------|
D|------------------------------------------------------|
Singing starts in the middle of the melody line at (1:23)

Transition to lead section(1:32)
E|-------------------------0---------|
A|-------------------0-------0-------|
F#---3-----3-----3-----0-------0-----|
D|-------4---------------------------|
A|-0---5-----0-4---0-0---4-----------|
D|-------------------------------11--|

Lead Section 1 
E|------------10—-12/14--14—--14/10--0-------------------------0----------|
A|-7/9-0--------0-12/14--14—--14/10----0--10/9-------------9-------10p9---|
F#-------0----0-----------------------------------8-----------------------|
D|---------12-----0--------0---------0-------0-11--------—-0-0------------|
A|-----------------------0----10---------0-9----9---9-*12---------10---10-|
D|------------------------------------------------------------------------|

This part is not 100% accurate due to the very hard to hear bass notes and
the fact that I think there may be some delay effect at the 14/14 chord. But
this works just fine and is more or less the same.
E|------------10—-14/10—-10---14/10--0----------------------10------------|
A|-7/9-0--------0-14/10—-10---14/10----0--10/9-----------------0-9--------|
F#-------0----0-----------------------------------8-----------------8~----|
D|---------12-----0--------0---------0-------0-11--------—----------------|
A|-----------------------0----10---------0------9---9-*12-----------9~----|
D|-----------------------------------------9------------------------------|

======
Solo 1 part 1 (tap and slightly bend 11 with left hand ring finger)
======
E|--------------------------------------|
A|-7h9p7---7----------------------------|
F#-------8--------------T7sb-*12--------| sb=slight bend
D|-----------0------------------*12---0-| *=natural harmonic
A|--------------0h9sbp5-------------4---|
D|--------------------------------------|
There is no pause im just breaking it up to make it easier to read

Part 2 (Super fast part)         
 
(slide into the 4) (tap with left hand)
E|---------------------------------|
A|---------------------------------|
F#-0h3p0---------------------------|
D|------////4h7p4p0---0--------0---|
A|------------------0---0---T9---0-|
D|---------------------------------|

Part 3
Slows down drastically on this part
E|--------------------------------------------------------------------|
A|---------------------------------------------------------0----------|
F#-------------------------------0---------------------------0--------|
D|---------4-0-----4/7-4-0-0h2h4---4-0-4/7-4-0—2-2-0-0h2h4-----*12----|
A|-0-2-2/5-----0-2-4/7-4-0---------4-0-4/7-4-0-2-2-0------------------|
D|----------------------------------------------------------------*7--|
End solo

Back to intro melody which changes up a bit (2:02) (in order)
E|-------0-------------------------------------------------------|
A|---------0---0---------------0---------------------------------|
F#---3-------------3---3---3-------------------------------------|
D|-0-------------4-------4-------4-------------------------------|
A|-----5-5---5-5-----5-5-----5-5---------------------------------|
D|---------------------------------------------------------------|

E|-------0-------------------------0---------------0-------|
A|-0-------0-------------------------0---------------0-----|
F#---3---------3-----3-----3---3---------3---3-------------|
D|-----4---------4-----------4---------4---4---4-----------|
A|-0---------0-4---0---5-5-------5-5-------------5-5-------|
D|---------------------------------------------------------|

E|-------0-------------------------------------------------|
A|-0-------0-----------------------0---------------0-------|
F|---0-3---------0---0-----3---3-------3---3---3-----0-----|
D|-----------------7---------4-------4---4---4-------------|
A|-0---------0-4-------5-5-------5-5-------------5-5-------|
D|---------------------------------------------------------|

===============================
Then play intro melody during singing part (2:16).
===============================

Transition 2 (2:37)
E|-------------------------0---------|
A|---------------------------0-------|
F#---3-----3-----3-----3-------0-----|
D|-------4-----------4-----------7---|
A|-0---5-----0-4---0-0---4-----------|
D|-----------------------------------|

Lead Section 2
E|---10-----10-----10-----10----------------------------------------------|
A|-----10-----10-----10-----10---17-----17------17------17------17~-------|
F#-------12-----12-----12-----12---15-----15------15------15--------------|
D|-0---------------------------------14-----14------14------14------------|
A|------------------------------------------------------------------------|
D|------------------------------------------------------17------16~-------|
These are together and have weird finger patterns
E|---5------5-----5-----5-----5------------------0------------------------|
A|-----5------5-----5-----5-----5------12----------0-------9-----9-----9~-|
F#-0-----8------8-----8-----8-----8/12---12----------8---8---8-----8------|
D|---0-----0-------------------------0-----12/7--------7-------7-----7----|
A|----------------------------------------------0-------------------------|
D|------------------------------------------------------------------------|
REPEAT

Little ditty before solo during vocals (2:57) 
                          Hit the open note with left hand while pulling off
E|---------------12-----10~-------------0----------------------12----10~--|
A|------10-9~-------0-------12----10h12p10/9---9-------10/9~------0-------|
F#-8/12------------------------12----------------10/12--------------------|
D|------------0------------------------------0----------------------------|
A|-----------------------------------------------------------0------------|
D|------------------------------------------------------------------------|

======
Solo 2 
======
E|---10-----0----------0-------0------------0------------------0-----|
A|-----12-----0---9/10---0---0--------5-------5---0------0-------0~--|
F#-------12-----12---------12----0------3------3----0------0---------|
D|-0--------------------------------------4-----4------------0-------|
A|----------------------------------------------------t7-------------|
D|----------------------------------5--------------------------------|
                                                        
E|---------0--------------------------------------5/10-10--0---|
A|---5------5----------5p4-0h2p0-------0----------5/10-10----9-|
F#-----3-----3---0-----------------------0---------------------|
D|-------4---------0-------------0h2h4------0-0~---------------|end solo
A|-0-----------2-----2-----------------------------------------|
D|-------------------------------------------------------------|

Stream of random beautiful riffs to end the last 30 seconds of the song(3:11)
E|-----------------0-------------------0---------------------------|
A|-----9-------------0-------5/7-0---------0-----4p0----*12--------|
F#-8----8--------------0-----3/5---0-----5~--0-------------*12-----|
D|-------0-----5sb-------0-0~--------0-0---7~--0-0---7sb------*12--|
A|---9-------------------------------------------------------------|
D|----------5------------------------------------------------------|
These last 5 parts are all connected right after another
E|-----------------------------------------------5/10-10------------------|
A|-------------------------------------------0---5/10----9------*5--------|
F#-------0-----------------------0-------3-----------------8------*5------|
D|-0---4---4---------0-------0-----0-------4---0-0------------------*5----|
A|---2-------2-0-0h2-----0h2---0-----0-5---------------------4h5------*5--|
D|---------------------5--------------------------------------------------|
                        X is just a mute A string pick
E|------10-------------------------------------------10---0-----------0----|
A|---------0-----4p0---x---7/9-0-----------------7/9---10---0----9/10---0--|
F#-----------0-------3-----------0-----8/5-0------------------------------0|
D|--5sb--------0---------0-0-----------7/5---0----------------12--------12-|
A|-------------------------------------------------------------------------|
D|5--------------------------------5-5-5-------5---------------------------|

E|---5/10-10-------------------------0-------------------------------------|
A|---5/10-----9------------------------0-------5/7-5-0---5/2-0-----5-------|
F#--------------8~-----*12---------------0---3-3/5-3-0---------0-----3h5---|
D|-0-0-------------------*12-0---5sb-------0-0---------0-0-------0---------|
A|-----------------9h10-------------------------------------------------*5-|
D|-----------------------------5-------------------------------------------|

E|---------------------------------------------------------------|
A|----*12~-------------------------------------------------------|
F#*12--------------0-------0-------------------------------------|
D|--*12----------4---4-------------------------------------------|
A|-----------2-5-------5-----5-----------------------------------|
D|---------5-------------5-9---9-5~------------------------------|


End
comments
We did not receive enough feedback on this tab! Please rate:
print report bad tab
1 2 3 4 5
5 comments total. Showing first comments.
0 reply
Tontonblack wrote on February 16 2011, 09:12 pm

You are my hero.

0 reply
jatabankin wrote on May 17 2011, 07:07 pm

^what he said thank you

0 reply
bam4417 wrote on July 24 2011, 10:36 pm

Hey everyone this is shadow777, which got banned for multiple accounts. I have a much more updated version of this tab for anyone interested. Just send me an email at eli_bost@yahoo.com and id be glad to send it to you :)

I want to post or [tab]
guest
You may want to rate the tab now too:
select rating
Please do not post tabs as comments. Select "correction" instead!